  0
SECTION
  2
HEADER
  9
$ACADVER
  1
AC1015
  9
$ACADMAINTVER
 70
     6
  9
$DWGCODEPAGE
  3
ANSI_1254
  9
$INSBASE
 10
0.0
 20
0.0
 30
0.0
  9
$EXTMIN
 10
0.0
 20
0.0
 30
0.0
  9
$EXTMAX
 10
279.4
 20
215.9
 30
0.0
  9
$LIMMIN
 10
0.0
 20
0.0
  9
$LIMMAX
 10
279.4
 20
215.9
  9
$ORTHOMODE
 70
     0
  9
$REGENMODE
 70
     1
  9
$FILLMODE
 70
     1
  9
$QTEXTMODE
 70
     0
  9
$MIRRTEXT
 70
     1
  9
$LTSCALE
 40
1.0
  9
$ATTMODE
 70
     1
  9
$TEXTSIZE
 40
3.5
  9
$TRACEWID
 40
1.0
  9
$TEXTSTYLE
  7
Standard
  9
$CLAYER
  8
0
  9
$CELTYPE
  6
ByLayer
  9
$CECOLOR
 62
   256
  9
$CELTSCALE
 40
1.0
  9
$DISPSILH
 70
     0
  9
$DIMSCALE
 40
1.0
  9
$DIMASZ
 40
3.5
  9
$DIMEXO
 40
1.0
  9
$DIMDLI
 40
3.75
  9
$DIMRND
 40
0.0
  9
$DIMDLE
 40
0.0
  9
$DIMEXE
 40
1.0
  9
$DIMTP
 40
0.0
  9
$DIMTM
 40
0.0
  9
$DIMTXT
 40
3.5
  9
$DIMCEN
 40
2.5
  9
$DIMTSZ
 40
0.0
  9
$DIMTOL
 70
     0
  9
$DIMLIM
 70
     0
  9
$DIMTIH
 70
     1
  9
$DIMTOH
 70
     1
  9
$DIMSE1
 70
     0
  9
$DIMSE2
 70
     0
  9
$DIMTAD
 70
     1
  9
$DIMZIN
 70
     0
  9
$DIMBLK
  1

  9
$DIMASO
 70
     1
  9
$DIMSHO
 70
     1
  9
$DIMPOST
  1

  9
$DIMAPOST
  1

  9
$DIMALT
 70
     0
  9
$DIMALTD
 70
     3
  9
$DIMALTF
 40
0.0393700787
  9
$DIMLFAC
 40
1.0
  9
$DIMTOFL
 70
     1
  9
$DIMTVP
 40
0.0
  9
$DIMTIX
 70
     0
  9
$DIMSOXD
 70
     0
  9
$DIMSAH
 70
     0
  9
$DIMBLK1
  1

  9
$DIMBLK2
  1

  9
$DIMSTYLE
  2
ISO-25
  9
$DIMCLRD
 70
     0
  9
$DIMCLRE
 70
     0
  9
$DIMCLRT
 70
     0
  9
$DIMTFAC
 40
1.0
  9
$DIMGAP
 40
1.524
  9
$DIMJUST
 70
     0
  9
$DIMSD1
 70
     0
  9
$DIMSD2
 70
     0
  9
$DIMTOLJ
 70
     0
  9
$DIMTZIN
 70
     0
  9
$DIMALTZ
 70
     0
  9
$DIMALTTZ
 70
     0
  9
$DIMUPT
 70
     0
  9
$DIMDEC
 70
     2
  9
$DIMTDEC
 70
     2
  9
$DIMALTU
 70
     2
  9
$DIMALTTD
 70
     3
  9
$DIMTXSTY
  7
Standard
  9
$DIMAUNIT
 70
     0
  9
$DIMADEC
 70
     2
  9
$DIMALTRND
 40
0.0
  9
$DIMAZIN
 70
     0
  9
$DIMDSEP
 70
    44
  9
$DIMATFIT
 70
     3
  9
$DIMFRAC
 70
     0
  9
$DIMLDRBLK
  1

  9
$DIMLUNIT
 70
     2
  9
$DIMLWD
 70
    -2
  9
$DIMLWE
 70
    -2
  9
$DIMTMOVE
 70
     0
  9
$LUNITS
 70
     2
  9
$LUPREC
 70
     2
  9
$SKETCHINC
 40
1.0
  9
$FILLETRAD
 40
10.0
  9
$AUNITS
 70
     0
  9
$AUPREC
 70
     2
  9
$MENU
  1
.
  9
$ELEVATION
 40
0.0
  9
$PELEVATION
 40
0.0
  9
$THICKNESS
 40
0.0
  9
$LIMCHECK
 70
     0
  9
$CHAMFERA
 40
0.0
  9
$CHAMFERB
 40
0.0
  9
$CHAMFERC
 40
0.0
  9
$CHAMFERD
 40
0.0
  9
$SKPOLY
 70
     0
  9
$TDCREATE
 40
2459947.402172384
  9
$TDUCREATE
 40
2459947.277172384
  9
$TDUPDATE
 40
2459947.402172697
  9
$TDUUPDATE
 40
2459947.277172697
  9
$TDINDWG
 40
0.0000000116
  9
$TDUSRTIMER
 40
0.0000000116
  9
$USRTIMER
 70
     1
  9
$ANGBASE
 50
0.0
  9
$ANGDIR
 70
     0
  9
$PDMODE
 70
     0
  9
$PDSIZE
 40
-1.0
  9
$PLINEWID
 40
0.0
  9
$SPLFRAME
 70
     0
  9
$SPLINETYPE
 70
     6
  9
$SPLINESEGS
 70
     8
  9
$HANDSEED
  5
E2
  9
$SURFTAB1
 70
     6
  9
$SURFTAB2
 70
     6
  9
$SURFTYPE
 70
     6
  9
$SURFU
 70
     6
  9
$SURFV
 70
     6
  9
$UCSBASE
  2

  9
$UCSNAME
  2

  9
$UCSORG
 10
0.0
 20
0.0
 30
0.0
  9
$UCSXDIR
 10
1.0
 20
0.0
 30
0.0
  9
$UCSYDIR
 10
0.0
 20
1.0
 30
0.0
  9
$UCSORTHOREF
  2

  9
$UCSORTHOVIEW
 70
     0
  9
$UCSORGTOP
 10
0.0
 20
0.0
 30
0.0
  9
$UCSORGBOTTOM
 10
0.0
 20
0.0
 30
0.0
  9
$UCSORGLEFT
 10
0.0
 20
0.0
 30
0.0
  9
$UCSORGRIGHT
 10
0.0
 20
0.0
 30
0.0
  9
$UCSORGFRONT
 10
0.0
 20
0.0
 30
0.0
  9
$UCSORGBACK
 10
0.0
 20
0.0
 30
0.0
  9
$PUCSBASE
  2

  9
$PUCSNAME
  2

  9
$PUCSORG
 10
0.0
 20
0.0
 30
0.0
  9
$PUCSXDIR
 10
1.0
 20
0.0
 30
0.0
  9
$PUCSYDIR
 10
0.0
 20
1.0
 30
0.0
  9
$PUCSORTHOREF
  2

  9
$PUCSORTHOVIEW
 70
     0
  9
$PUCSORGTOP
 10
0.0
 20
0.0
 30
0.0
  9
$PUCSORGBOTTOM
 10
0.0
 20
0.0
 30
0.0
  9
$PUCSORGLEFT
 10
0.0
 20
0.0
 30
0.0
  9
$PUCSORGRIGHT
 10
0.0
 20
0.0
 30
0.0
  9
$PUCSORGFRONT
 10
0.0
 20
0.0
 30
0.0
  9
$PUCSORGBACK
 10
0.0
 20
0.0
 30
0.0
  9
$USERI1
 70
     0
  9
$USERI2
 70
     0
  9
$USERI3
 70
     0
  9
$USERI4
 70
     0
  9
$USERI5
 70
     0
  9
$USERR1
 40
0.0
  9
$USERR2
 40
0.0
  9
$USERR3
 40
0.0
  9
$USERR4
 40
0.0
  9
$USERR5
 40
0.0
  9
$WORLDVIEW
 70
     1
  9
$SHADEDGE
 70
     3
  9
$SHADEDIF
 70
    70
  9
$TILEMODE
 70
     1
  9
$MAXACTVP
 70
    64
  9
$PINSBASE
 10
0.0
 20
0.0
 30
0.0
  9
$PLIMCHECK
 70
     0
  9
$PEXTMIN
 10
1.0000000000E+20
 20
1.0000000000E+20
 30
1.0000000000E+20
  9
$PEXTMAX
 10
-1.0000000000E+20
 20
-1.0000000000E+20
 30
-1.0000000000E+20
  9
$PLIMMIN
 10
0.0
 20
0.0
  9
$PLIMMAX
 10
420.0
 20
297.0
  9
$UNITMODE
 70
     0
  9
$VISRETAIN
 70
     1
  9
$PLINEGEN
 70
     0
  9
$PSLTSCALE
 70
     1
  9
$TREEDEPTH
 70
  3020
  9
$CMLSTYLE
  2
Standard
  9
$CMLJUST
 70
     0
  9
$CMLSCALE
 40
20.0
  9
$PROXYGRAPHICS
 70
     1
  9
$MEASUREMENT
 70
     1
  9
$CELWEIGHT
370
    -1
  9
$ENDCAPS
280
     0
  9
$JOINSTYLE
280
     0
  9
$LWDISPLAY
290
     1
  9
$INSUNITS
 70
     4
  9
$HYPERLINKBASE
  1

  9
$STYLESHEET
  1

  9
$XEDIT
290
     1
  9
$CEPSNTYPE
380
     0
  9
$PSTYLEMODE
290
     1
  9
$FINGERPRINTGUID
  2
{86c98f68-4515-474b-a20c-d1d122664b6f}
  9
$VERSIONGUID
  2
{FAEB1C32-E019-11D5-929B-00C0DF256EC4}
  9
$EXTNAMES
290
     1
  9
$PSVPSCALE
 40
0.0
  9
$OLESTARTUP
290
     0
  0
ENDSEC
  0
SECTION
  2
CLASSES
  0
CLASS
  1
ACDBDICTIONARYWDFLT
  2
AcDbDictionaryWithDefault
  3
ObjectDBX Classes
 90
        0
280
     0
281
     0
  0
CLASS
  1
VISUALSTYLE
  2
AcDbVisualStyle
  3
ObjectDBX Classes
 90
     4095
280
     0
281
     0
  0
CLASS
  1
MATERIAL
  2
AcDbMaterial
  3
ObjectDBX Classes
 90
     1153
280
     0
281
     0
  0
CLASS
  1
SCALE
  2
AcDbScale
  3
ObjectDBX Classes
 90
     1153
280
     0
281
     0
  0
CLASS
  1
TABLESTYLE
  2
AcDbTableStyle
  3
ObjectDBX Classes
 90
     4095
280
     0
281
     0
  0
CLASS
  1
MLEADERSTYLE
  2
AcDbMLeaderStyle
  3
ACDB_MLEADERSTYLE_CLASS
 90
     4095
280
     0
281
     0
  0
CLASS
  1
SUN
  2
AcDbSun
  3
SCENEOE
 90
     1153
280
     0
281
     0
  0
CLASS
  1
ACDBPLACEHOLDER
  2
AcDbPlaceHolder
  3
ObjectDBX Classes
 90
        0
280
     0
281
     0
  0
CLASS
  1
LAYOUT
  2
AcDbLayout
  3
ObjectDBX Classes
 90
        0
280
     0
281
     0
  0
ENDSEC
  0
SECTION
  2
TABLES
  0
TABLE
  2
VPORT
  5
8
330
0
100
AcDbSymbolTable
 70
     1
  0
VPORT
  5
29
330
8
100
AcDbSymbolTableRecord
100
AcDbViewportTableRecord
  2
*Active
 70
     0
 10
0.0
 20
0.0
 11
1.0
 21
1.0
 12
139.7
 22
107.95
 13
0.0
 23
0.0
 14
10.0
 24
10.0
 15
10.0
 25
10.0
 16
0.0
 26
0.0
 36
1.0
 17
0.0
 27
0.0
 37
0.0
 40
215.9
 41
1.2941176471
 42
50.0
 43
0.0
 44
0.0
 50
0.0
 51
0.0
 71
     0
 72
  2000
 73
     1
 74
     3
 75
     0
 76
     0
 77
     0
 78
     0
281
     0
 65
     1
110
0.0
120
0.0
130
0.0
111
1.0
121
0.0
131
0.0
112
0.0
122
1.0
132
0.0
 79
     0
146
0.0
  0
ENDTAB
  0
TABLE
  2
LTYPE
  5
5
330
0
100
AcDbSymbolTable
 70
     6
  0
LTYPE
  5
14
330
5
100
AcDbSymbolTableRecord
100
AcDbLinetypeTableRecord
  2
ByBlock
 70
     0
  3

 72
    65
 73
     0
 40
0.0
  0
LTYPE
  5
15
330
5
100
AcDbSymbolTableRecord
100
AcDbLinetypeTableRecord
  2
ByLayer
 70
     0
  3

 72
    65
 73
     0
 40
0.0
  0
LTYPE
  5
16
330
5
100
AcDbSymbolTableRecord
100
AcDbLinetypeTableRecord
  2
Continuous
 70
     0
  3
Solid line
 72
    65
 73
     0
 40
0.0
  0
LTYPE
  5
6E
330
5
100
AcDbSymbolTableRecord
100
AcDbLinetypeTableRecord
  2
HIDDEN
 70
     0
  3
Hidden __ __ __ __ __ __ __ __ __ __ __ __ __ __
 72
    65
 73
     2
 40
1.905
 49
1.27
 74
     0
 49
-0.635
 74
     0
  0
LTYPE
  5
6F
330
5
100
AcDbSymbolTableRecord
100
AcDbLinetypeTableRecord
  2
PHANTOM
 70
     0
  3
Phantom ______  __  __  ______  __  __  ______
 72
    65
 73
     6
 40
12.7
 49
6.35
 74
     0
 49
-1.27
 74
     0
 49
1.27
 74
     0
 49
-1.27
 74
     0
 49
1.27
 74
     0
 49
-1.27
 74
     0
  0
LTYPE
  5
70
330
5
100
AcDbSymbolTableRecord
100
AcDbLinetypeTableRecord
  2
CENTER
 70
     0
  3
Center ____ _ ____ _ ____ _ ____ _ ____ _ ____
 72
    65
 73
     4
 40
10.16
 49
6.35
 74
     0
 49
-1.27
 74
     0
 49
1.27
 74
     0
 49
-1.27
 74
     0
  0
LTYPE
  5
71
330
5
100
AcDbSymbolTableRecord
100
AcDbLinetypeTableRecord
  2
CENTERX2
 70
     0
  3
Center (2x) ________  __  ________  __  _____
 72
    65
 73
     4
 40
20.32
 49
12.7
 74
     0
 49
-2.54
 74
     0
 49
2.54
 74
     0
 49
-2.54
 74
     0
  0
LTYPE
  5
72
330
5
100
AcDbSymbolTableRecord
100
AcDbLinetypeTableRecord
  2
DOT2
 70
     0
  3
Dot (.5x) ........................................
 72
    65
 73
     2
 40
0.635
 49
0.0
 74
     0
 49
-0.635
 74
     0
  0
ENDTAB
  0
TABLE
  2
LAYER
  5
2
330
0
100
AcDbSymbolTable
 70
    17
  0
LAYER
  5
10
330
2
100
AcDbSymbolTableRecord
100
AcDbLayerTableRecord
  2
0
 70
     0
 62
     7
  6
Continuous
370
    -3
390
F
  0
LAYER
  5
73
330
2
100
AcDbSymbolTableRecord
100
AcDbLayerTableRecord
  2
FORMAT
 70
     0
 62
     7
  6
Continuous
370
    -3
390
F
  0
LAYER
  5
74
330
2
100
AcDbSymbolTableRecord
100
AcDbLayerTableRecord
  2
YARDIMCI_GEOMETRI
 70
     0
 62
    -6
  6
Continuous
290
     0
370
    -3
390
F
  0
LAYER
  5
75
330
2
100
AcDbSymbolTableRecord
100
AcDbLayerTableRecord
  2
SAYFA_CERCEVESI
 70
     0
 62
     7
  6
Continuous
370
    25
390
F
  0
LAYER
  5
76
330
2
100
AcDbSymbolTableRecord
100
AcDbLayerTableRecord
  2
ANTET
 70
     0
 62
     7
  6
Continuous
370
    -3
390
F
  0
LAYER
  5
77
330
2
100
AcDbSymbolTableRecord
100
AcDbLayerTableRecord
  2
OLCU
 70
     0
 62
   150
  6
Continuous
370
    -3
390
F
  0
LAYER
  5
78
330
2
100
AcDbSymbolTableRecord
100
AcDbLayerTableRecord
  2
METIN
 70
     0
 62
    96
  6
Continuous
370
    -3
390
F
  0
LAYER
  5
79
330
2
100
AcDbSymbolTableRecord
100
AcDbLayerTableRecord
  2
BALON
 70
     0
 62
     5
  6
Continuous
370
    -3
390
F
  0
LAYER
  5
7A
330
2
100
AcDbSymbolTableRecord
100
AcDbLayerTableRecord
  2
VURGU
 70
     0
 62
     7
  6
Continuous
370
    -3
390
F
  0
LAYER
  5
7B
330
2
100
AcDbSymbolTableRecord
100
AcDbLayerTableRecord
  2
SILIK
 70
     0
 62
     7
  6
Continuous
370
    -3
390
F
  0
LAYER
  5
7C
330
2
100
AcDbSymbolTableRecord
100
AcDbLayerTableRecord
  2
MODEL
 70
     0
 62
     7
  6
Continuous
370
    -3
390
F
  0
LAYER
  5
7D
330
2
100
AcDbSymbolTableRecord
100
AcDbLayerTableRecord
  2
DETAYLANDıRMA
 70
     0
 62
   190
  6
Continuous
370
    -3
390
F
  0
LAYER
  5
7E
330
2
100
AcDbSymbolTableRecord
100
AcDbLayerTableRecord
  2
TOLERANS
 70
     0
 62
   230
  6
Continuous
370
    -3
390
F
  0
LAYER
  5
7F
330
2
100
AcDbSymbolTableRecord
100
AcDbLayerTableRecord
  2
MERKEZ_CIZGILERI
 70
     0
 62
    30
  6
Continuous
370
    -3
390
F
  0
LAYER
  5
80
330
2
100
AcDbSymbolTableRecord
100
AcDbLayerTableRecord
  2
KESIT-DETAY_CIZGILERI
 70
     0
 62
     7
  6
Continuous
370
    -3
390
F
  0
LAYER
  5
81
330
2
100
AcDbSymbolTableRecord
100
AcDbLayerTableRecord
  2
\U+041E\U+0421\U+0415\U+0412\U+042B\U+0415
 70
     0
 62
     7
  6
Continuous
370
    -3
390
F
  0
LAYER
  5
82
330
2
100
AcDbSymbolTableRecord
100
AcDbLayerTableRecord
  2
\U+0412\U+041E\U+0414\U+042F\U+041D\U+042B\U+0415_\U+0417\U+041D\U+0410\U+041A\U+0418
 70
     0
 62
    11
  6
Continuous
370
    -3
390
F
  0
ENDTAB
  0
TABLE
  2
STYLE
  5
3
330
0
100
AcDbSymbolTable
 70
     1
  0
STYLE
  5
11
330
3
100
AcDbSymbolTableRecord
100
AcDbTextStyleTableRecord
  2
Standard
 70
     0
 40
0.0
 41
1.0
 50
0.0
 71
     0
 42
3.5
  3
txt
  4

  0
ENDTAB
  0
TABLE
  2
VIEW
  5
6
330
0
100
AcDbSymbolTable
 70
     0
  0
ENDTAB
  0
TABLE
  2
UCS
  5
7
330
0
100
AcDbSymbolTable
 70
     0
  0
ENDTAB
  0
TABLE
  2
APPID
  5
9
330
0
100
AcDbSymbolTable
 70
     1
  0
APPID
  5
12
330
9
100
AcDbSymbolTableRecord
100
AcDbRegAppTableRecord
  2
ACAD
 70
     0
  0
ENDTAB
  0
TABLE
  2
DIMSTYLE
  5
A
330
0
100
AcDbSymbolTable
 70
     1
100
AcDbDimStyleTable
  0
DIMSTYLE
105
27
330
A
100
AcDbSymbolTableRecord
100
AcDbDimStyleTableRecord
  2
ISO-25
 70
     0
 41
2.5
 42
0.625
 43
3.75
 44
1.25
 73
     0
 74
     0
 77
     1
 78
     8
140
2.5
141
2.5
143
0.0393700787
147
0.625
171
     3
172
     1
178
     0
271
     2
272
     2
274
     3
278
    44
283
     0
284
     8
340
11
  0
ENDTAB
  0
TABLE
  2
BLOCK_RECORD
  5
1
330
0
100
AcDbSymbolTable
 70
     3
  0
BLOCK_RECORD
  5
1F
330
1
100
AcDbSymbolTableRecord
100
AcDbBlockTableRecord
  2
*Model_Space
340
22
  0
BLOCK_RECORD
  5
1B
330
1
100
AcDbSymbolTableRecord
100
AcDbBlockTableRecord
  2
*Paper_Space
340
1E
  0
BLOCK_RECORD
  5
23
330
1
100
AcDbSymbolTableRecord
100
AcDbBlockTableRecord
  2
*Paper_Space0
340
26
  0
BLOCK_RECORD
  5
9C
330
1
100
AcDbSymbolTableRecord
100
AcDbBlockTableRecord
  2
SW_CENTERMARKSYMBOL_0
340
0
102
{BLKREFS
331
A7
102
}
  0
BLOCK_RECORD
  5
BC
330
1
100
AcDbSymbolTableRecord
100
AcDbBlockTableRecord
  2
SW_CENTERMARKSYMBOL_1
340
0
102
{BLKREFS
331
C7
102
}
  0
ENDTAB
  0
ENDSEC
  0
SECTION
  2
BLOCKS
  0
BLOCK
  5
20
330
1F
100
AcDbEntity
  8
0
100
AcDbBlockBegin
  2
*Model_Space
 70
     0
 10
0.0
 20
0.0
 30
0.0
  3
*Model_Space
  1

  0
ENDBLK
  5
21
330
1F
100
AcDbEntity
  8
0
100
AcDbBlockEnd
  0
BLOCK
  5
1C
330
1B
100
AcDbEntity
 67
     1
  8
0
100
AcDbBlockBegin
  2
*Paper_Space
 70
     0
 10
0.0
 20
0.0
 30
0.0
  3
*Paper_Space
  1

  0
ENDBLK
  5
1D
330
1B
100
AcDbEntity
 67
     1
  8
0
100
AcDbBlockEnd
  0
BLOCK
  5
24
330
23
100
AcDbEntity
  8
0
100
AcDbBlockBegin
  2
*Paper_Space0
 70
     0
 10
0.0
 20
0.0
 30
0.0
  3
*Paper_Space0
  1

  0
ENDBLK
  5
25
330
23
100
AcDbEntity
  8
0
100
AcDbBlockEnd
  0
BLOCK
  5
9D
330
9C
100
AcDbEntity
  8
0
100
AcDbBlockBegin
  2
SW_CENTERMARKSYMBOL_0
 70
     0
 10
0.0
 20
0.0
 30
0.0
  3
SW_CENTERMARKSYMBOL_0
  1

  0
LINE
  5
9F
330
9C
100
AcDbEntity
  8
FORMAT
 62
     0
100
AcDbLine
 10
0.0
 20
0.0
 30
0.0
 11
0.0
 21
2.5
 31
0.0
  0
LINE
  5
A0
330
9C
100
AcDbEntity
  8
FORMAT
 62
     0
100
AcDbLine
 10
0.0
 20
0.0
 30
0.0
 11
-2.5
 21
0.0
 31
0.0
  0
LINE
  5
A1
330
9C
100
AcDbEntity
  8
FORMAT
 62
     0
100
AcDbLine
 10
0.0
 20
0.0
 30
0.0
 11
0.0
 21
-2.5
 31
0.0
  0
LINE
  5
A2
330
9C
100
AcDbEntity
  8
FORMAT
 62
     0
100
AcDbLine
 10
0.0
 20
0.0
 30
0.0
 11
2.5
 21
0.0
 31
0.0
  0
LINE
  5
A3
330
9C
100
AcDbEntity
  8
FORMAT
 62
     0
100
AcDbLine
 10
0.0
 20
5.0
 30
0.0
 11
0.0
 21
227.5
 31
0.0
  0
LINE
  5
A4
330
9C
100
AcDbEntity
  8
FORMAT
 62
     0
100
AcDbLine
 10
-5.0
 20
0.0
 30
0.0
 11
-227.5
 21
0.0
 31
0.0
  0
LINE
  5
A5
330
9C
100
AcDbEntity
  8
FORMAT
 62
     0
100
AcDbLine
 10
0.0
 20
-5.0
 30
0.0
 11
0.0
 21
-227.5
 31
0.0
  0
LINE
  5
A6
330
9C
100
AcDbEntity
  8
FORMAT
 62
     0
100
AcDbLine
 10
5.0
 20
0.0
 30
0.0
 11
227.5
 21
0.0
 31
0.0
  0
ENDBLK
  5
9E
330
9C
100
AcDbEntity
  8
0
100
AcDbBlockEnd
  0
BLOCK
  5
BD
330
BC
100
AcDbEntity
  8
0
100
AcDbBlockBegin
  2
SW_CENTERMARKSYMBOL_1
 70
     0
 10
0.0
 20
0.0
 30
0.0
  3
SW_CENTERMARKSYMBOL_1
  1

  0
LINE
  5
BF
330
BC
100
AcDbEntity
  8
FORMAT
 62
     0
100
AcDbLine
 10
0.0
 20
0.0
 30
0.0
 11
0.0
 21
2.5
 31
0.0
  0
LINE
  5
C0
330
BC
100
AcDbEntity
  8
FORMAT
 62
     0
100
AcDbLine
 10
0.0
 20
0.0
 30
0.0
 11
-2.5
 21
0.0
 31
0.0
  0
LINE
  5
C1
330
BC
100
AcDbEntity
  8
FORMAT
 62
     0
100
AcDbLine
 10
0.0
 20
0.0
 30
0.0
 11
0.0
 21
-2.5
 31
0.0
  0
LINE
  5
C2
330
BC
100
AcDbEntity
  8
FORMAT
 62
     0
100
AcDbLine
 10
0.0
 20
0.0
 30
0.0
 11
2.5
 21
0.0
 31
0.0
  0
LINE
  5
C3
330
BC
100
AcDbEntity
  8
FORMAT
 62
     0
100
AcDbLine
 10
0.0
 20
5.0
 30
0.0
 11
0.0
 21
227.5
 31
0.0
  0
LINE
  5
C4
330
BC
100
AcDbEntity
  8
FORMAT
 62
     0
100
AcDbLine
 10
-5.0
 20
0.0
 30
0.0
 11
-227.5
 21
0.0
 31
0.0
  0
LINE
  5
C5
330
BC
100
AcDbEntity
  8
FORMAT
 62
     0
100
AcDbLine
 10
0.0
 20
-5.0
 30
0.0
 11
0.0
 21
-227.5
 31
0.0
  0
LINE
  5
C6
330
BC
100
AcDbEntity
  8
FORMAT
 62
     0
100
AcDbLine
 10
5.0
 20
0.0
 30
0.0
 11
227.5
 21
0.0
 31
0.0
  0
ENDBLK
  5
BE
330
BC
100
AcDbEntity
  8
0
100
AcDbBlockEnd
  0
ENDSEC
  0
SECTION
  2
ENTITIES
  0
LINE
  5
83
330
1F
100
AcDbEntity
  8
0
  6
Continuous
 62
     7
370
    25
100
AcDbLine
 10
-764.3104610339
 20
486.3783001275
 30
0.0
 11
-764.3104610339
 21
279.2792743605
 31
0.0
  0
LINE
  5
84
330
1F
100
AcDbEntity
  8
0
  6
Continuous
 62
     7
370
    25
100
AcDbLine
 10
-314.3104610339
 20
279.2792743605
 30
0.0
 11
-314.3104610339
 21
486.3783001275
 31
0.0
  0
LINE
  5
85
330
1F
100
AcDbEntity
  8
0
  6
Continuous
 62
     7
370
    25
100
AcDbLine
 10
-764.3104610339
 20
279.2792743605
 30
0.0
 11
-764.3104610339
 21
120.1802485936
 31
0.0
  0
LINE
  5
86
330
1F
100
AcDbEntity
  8
0
  6
Continuous
 62
     7
370
    25
100
AcDbLine
 10
-314.3104610339
 20
120.1802485936
 30
0.0
 11
-314.3104610339
 21
279.2792743605
 31
0.0
  0
LINE
  5
87
330
1F
100
AcDbEntity
  8
0
  6
Continuous
 62
     7
370
    25
100
AcDbLine
 10
-764.3104610339
 20
120.1802485936
 30
0.0
 11
-764.3104610339
 21
-161.6216998725
 31
0.0
  0
LINE
  5
88
330
1F
100
AcDbEntity
  8
0
  6
Continuous
 62
     7
370
    25
100
AcDbLine
 10
-314.3104610339
 20
-161.6216998725
 30
0.0
 11
-314.3104610339
 21
120.1802485936
 31
0.0
  0
LWPOLYLINE
  5
89
330
1F
100
AcDbEntity
  8
0
  6
Continuous
 62
     7
370
    25
100
AcDbPolyline
 90
      160
 70
   128
 43
0.0
 10
-764.3104610339
 20
486.3783001275
 10
-764.1348056384
 20
480.0928378083
 10
-763.6081137171
 20
473.8171894923
 10
-762.7312076369
 20
467.5611538596
 10
-761.5054565825
 20
461.3344989669
 10
-759.9327744187
 20
455.146946997
 10
-758.015616702
 20
449.0081590775
 10
-755.7569768465
 20
442.9277201972
 10
-753.1603814504
 20
436.9151242396
 10
-750.2298847891
 20
430.9797591594
 10
-746.9700624852
 20
425.1308923248
 10
-743.3860043643
 20
419.377656047
 10
-739.4833065077
 20
413.7290333215
 10
-735.2680625149
 20
408.193843802
 10
-730.7468539889
 20
402.7807300301
 10
-725.9267402602
 20
397.4981439403
 10
-720.8152473641
 20
392.3543336636
 10
-715.4203562902
 20
387.3573306493
 10
-709.7504905202
 20
382.5149371243
 10
-703.8145028767
 20
377.8347139113
 10
-697.6216616997
 20
373.3239686233
 10
-691.1816363755
 20
368.9897442535
 10
-684.5044822392
 20
364.8388081789
 10
-677.6006248743
 20
360.8776415934
 10
-670.4808438346
 20
357.1124293884
 10
-663.1562558131
 20
353.5490504957
 10
-655.6382972844
 20
350.1930687085
 10
-647.9387066483
 20
347.0497239941
 10
-640.0695059016
 20
344.123924312
 10
-632.0429818673
 20
341.4202379511
 10
-623.8716670096
 20
338.9428863967
 10
-615.5683198668
 20
336.6957377393
 10
-607.1459051298
 20
334.6823006346
 10
-598.6175733994
 20
332.9057188257
 10
-589.9966406532
 20
331.3687662343
 10
-581.2965674544
 20
330.0738426293
 10
-572.5309379344
 20
329.0229698802
 10
-563.7134385833
 20
328.2177888001
 10
-554.8578368795
 20
327.6595565836
 10
-545.977959794
 20
327.3491448441
 10
-537.0876722006
 20
327.2870382528
 10
-528.200855228
 20
327.4733337815
 10
-519.3313845862
 20
327.9077405521
 10
-510.4931089006
 20
328.5895802898
 10
-501.6998280895
 20
329.517788383
 10
-492.9652718171
 20
330.6909155447
 10
-484.3030780562
 20
332.1071300763
 10
-475.726771794
 20
333.7642207268
 10
-467.2497439147
 20
335.6596001459
 10
-458.8852302911
 20
337.7903089237
 10
-450.6462911183
 20
340.1530202113
 10
-442.5457905217
 20
342.7440449154
 10
-434.5963764714
 20
345.5593374587
 10
-426.8104610339
 20
348.594502096
 10
-419.2002009918
 20
351.8447997779
 10
-411.7774788628
 20
355.3051555506
 10
-404.5538843465
 20
358.9701664792
 10
-397.540696228
 20
362.8341100843
 10
-390.7488647682
 20
366.8909532765
 10
-384.1889946057
 20
371.1343617768
 10
-377.8713281989
 20
375.5577100066
 10
-371.8057298341
 20
380.1540914327
 10
-366.0016702231
 20
384.916329351
 10
-360.4682117159
 20
389.8369880925
 10
-355.2139941512
 20
394.9083846326
 10
-350.2472213659
 20
400.1226005876
 10
-345.5756483862
 20
405.4714945782
 10
-341.2065693188
 20
410.9467149415
 10
-337.1468059619
 20
416.5397127708
 10
-333.4026971542
 20
422.241755264
 10
-329.980088877
 20
428.0439393584
 10
-326.884325127
 20
433.9372056325
 10
-324.1202395717
 20
439.9123524505
 10
-321.6921480025
 20
445.96005033
 10
-319.6038415964
 20
452.0708565086
 10
-317.8585809957
 20
458.2352296879
 10
-316.4590912178
 20
464.4435449308
 10
-315.4075573998
 20
470.6861086902
 10
-314.7056213869
 20
476.9531739438
 10
-314.354379169
 20
483.2349554131
 10
-314.354379169
 20
489.521644842
 10
-314.7056213869
 20
495.8034263112
 10
-315.4075573998
 20
502.0704915648
 10
-316.4590912178
 20
508.3130553242
 10
-317.8585809957
 20
514.5213705672
 10
-319.6038415964
 20
520.6857437464
 10
-321.6921480025
 20
526.796549925
 10
-324.1202395717
 20
532.8442478045
 10
-326.884325127
 20
538.8193946225
 10
-329.980088877
 20
544.7126608966
 10
-333.4026971542
 20
550.5148449911
 10
-337.1468059619
 20
556.2168874842
 10
-341.2065693188
 20
561.8098853135
 10
-345.5756483862
 20
567.2851056768
 10
-350.2472213659
 20
572.6339996674
 10
-355.2139941512
 20
577.8482156224
 10
-360.4682117159
 20
582.9196121625
 10
-366.0016702231
 20
587.840270904
 10
-371.8057298341
 20
592.6025088224
 10
-377.8713281989
 20
597.1988902484
 10
-384.1889946057
 20
601.6222384782
 10
-390.7488647682
 20
605.8656469785
 10
-397.540696228
 20
609.9224901708
 10
-404.5538843465
 20
613.7864337758
 10
-411.7774788628
 20
617.4514447044
 10
-419.2002009918
 20
620.9118004771
 10
-426.8104610339
 20
624.1620981591
 10
-434.5963764714
 20
627.1972627963
 10
-442.5457905217
 20
630.0125553396
 10
-450.6462911183
 20
632.6035800438
 10
-458.8852302911
 20
634.9662913313
 10
-467.2497439147
 20
637.0970001091
 10
-475.726771794
 20
638.9923795282
 10
-484.3030780562
 20
640.6494701787
 10
-492.9652718171
 20
642.0656847103
 10
-501.6998280895
 20
643.2388118721
 10
-510.4931089006
 20
644.1670199652
 10
-519.3313845862
 20
644.8488597029
 10
-528.2008552281
 20
645.2832664735
 10
-537.0876722006
 20
645.4695620023
 10
-545.977959794
 20
645.4074554109
 10
-554.8578368795
 20
645.0970436714
 10
-563.7134385833
 20
644.538811455
 10
-572.5309379344
 20
643.7336303749
 10
-581.2965674544
 20
642.6827576258
 10
-589.9966406532
 20
641.3878340207
 10
-598.6175733994
 20
639.8508814293
 10
-607.1459051298
 20
638.0742996204
 10
-615.5683198668
 20
636.0608625157
 10
-623.8716670096
 20
633.8137138583
 10
-632.0429818673
 20
631.3363623039
 10
-640.0695059017
 20
628.632675943
 10
-647.9387066483
 20
625.7068762609
 10
-655.6382972844
 20
622.5635315465
 10
-663.1562558131
 20
619.2075497593
 10
-670.4808438346
 20
615.6441708667
 10
-677.6006248743
 20
611.8789586616
 10
-684.5044822392
 20
607.9177920761
 10
-691.1816363755
 20
603.7668560015
 10
-697.6216616997
 20
599.4326316318
 10
-703.8145028767
 20
594.9218863438
 10
-709.7504905202
 20
590.2416631308
 10
-715.4203562902
 20
585.3992696058
 10
-720.8152473641
 20
580.4022665914
 10
-725.9267402602
 20
575.2584563147
 10
-730.7468539889
 20
569.9758702249
 10
-735.2680625149
 20
564.562756453
 10
-739.4833065077
 20
559.0275669336
 10
-743.3860043643
 20
553.378944208
 10
-746.9700624852
 20
547.6257079302
 10
-750.2298847891
 20
541.7768410956
 10
-753.1603814504
 20
535.8414760155
 10
-755.7569768465
 20
529.8288800578
 10
-758.015616702
 20
523.7484411775
 10
-759.9327744187
 20
517.6096532581
 10
-761.5054565825
 20
511.4221012881
 10
-762.7312076369
 20
505.1954463955
 10
-763.6081137171
 20
498.9394107627
 10
-764.1348056384
 20
492.6637624467
 10
-764.3104610339
 20
486.3783001275
  0
LWPOLYLINE
  5
8A
330
1F
100
AcDbEntity
  8
0
  6
Continuous
 62
     7
370
    25
100
AcDbPolyline
 90
      150
 70
   128
 43
0.0
 10
-737.6104610339
 20
486.3783001275
 10
-737.4341759522
 20
492.2894585157
 10
-736.9056341355
 20
498.1901070799
 10
-736.0257753118
 20
504.0697546824
 10
-734.7961638381
 20
509.9179475244
 10
-733.2189859187
 20
515.7242877323
 10
-731.2970457183
 20
521.4784518452
 10
-729.0337603766
 20
527.1702091692
 10
-726.4331539321
 20
532.7894399676
 10
-723.4998501684
 20
538.326153453
 10
-720.2390643924
 20
543.7705055509
 10
-716.6565941623
 20
549.112816402
 10
-712.7588089794
 20
554.3435875726
 10
-708.5526389634
 20
559.4535189423
 10
-704.0455625313
 20
564.4335252397
 10
-699.2455931004
 20
569.2747521954
 10
-694.1612648412
 20
573.9685922843
 10
-688.8016175037
 20
578.5067000303
 10
-683.1761803455
 20
582.8810068433
 10
-677.2949551884
 20
587.0837353654
 10
-671.1683986362
 20
591.1074132987
 10
-664.8074034828
 20
594.9448866907
 10
-658.2232793455
 20
598.5893326537
 10
-651.4277325568
 20
602.0342714958
 10
-644.4328453507
 20
605.2735782414
 10
-637.2510543816
 20
608.3014935213
 10
-629.8951286117
 20
611.1126338128
 10
-622.3781466085
 20
613.7020010109
 10
-614.7134732917
 20
616.0649913152
 10
-606.9147361708
 20
618.1974034153
 10
-598.9958011159
 20
620.0954459602
 10
-590.9707477043
 20
621.7557442996
 10
-582.8538441883
 20
623.1753464835
 10
-574.6595221261
 20
624.3517285112
 10
-566.4023507232
 20
625.2827988183
 10
-558.0970109292
 20
625.9669019957
 10
-549.758269335
 20
626.402821733
 10
-541.4009519189
 20
626.5897829808
 10
-533.0399176863
 20
626.5274533289
 10
-524.6900322509
 20
626.215943597
 10
-516.3661414044
 20
625.6558076381
 10
-508.0830447209
 20
624.8480413536
 10
-499.855469244
 20
623.7940809223
 10
-491.6980433027
 20
622.4958002474
 10
-483.6252705026
 20
620.9555076247
 10
-475.6515039391
 20
619.1759416382
 10
-467.7909206782
 20
617.1602662913
 10
-460.0574965501
 20
614.9120653811
 10
-452.4649813007
 20
612.4353361269
 10
-445.026874145
 20
609.7344820629
 10
-437.7563997661
 20
606.8143052091
 10
-430.6664848022
 20
603.6799975333
 10
-423.7697348632
 20
600.3371317202
 10
-417.0784121189
 20
596.7916512633
 10
-410.604413497
 20
593.0498598973
 10
-404.3592495307
 20
589.1184103908
 10
-398.3540238937
 20
585.0042927176
 10
-392.599413658
 20
580.7148216287
 10
-387.1056503107
 20
576.2576236472
 10
-381.8825015623
 20
571.6406235084
 10
-376.9392539809
 20
566.8720300702
 10
-372.2846964803
 20
561.9603217176
 10
-367.9271046937
 20
556.9142312888
 10
-363.8742262604
 20
551.7427305484
 10
-360.1332670503
 20
546.4550142362
 10
-356.7108783525
 20
541.0604837186
 10
-353.613145049
 20
535.5687302741
 10
-350.8455747967
 20
529.9895180399
 10
-348.4130882345
 20
524.3327666518
 10
-346.3200102347
 20
518.6085336073
 10
-344.5700622136
 20
512.8269963838
 10
-343.1663555149
 20
506.9984343435
 10
-342.111385878
 20
501.1332104572
 10
-341.4070290003
 20
495.2417528787
 10
-341.0545372027
 20
489.3345364046
 10
-341.0545372027
 20
483.4220638504
 10
-341.4070290003
 20
477.5148473764
 10
-342.111385878
 20
471.6233897979
 10
-343.1663555149
 20
465.7581659115
 10
-344.5700622136
 20
459.9296038712
 10
-346.3200102347
 20
454.1480666478
 10
-348.4130882345
 20
448.4238336032
 10
-350.8455747967
 20
442.7670822151
 10
-353.613145049
 20
437.1878699809
 10
-356.7108783525
 20
431.6961165364
 10
-360.1332670504
 20
426.3015860189
 10
-363.8742262604
 20
421.0138697066
 10
-367.9271046937
 20
415.8423689662
 10
-372.2846964803
 20
410.7962785375
 10
-376.9392539809
 20
405.8845701848
 10
-381.8825015623
 20
401.1159767466
 10
-387.1056503107
 20
396.4989766078
 10
-392.599413658
 20
392.0417786263
 10
-398.3540238937
 20
387.7523075374
 10
-404.3592495307
 20
383.6381898642
 10
-410.604413497
 20
379.7067403577
 10
-417.0784121189
 20
375.9649489918
 10
-423.7697348632
 20
372.4194685348
 10
-430.6664848022
 20
369.0766027217
 10
-437.7563997661
 20
365.9422950459
 10
-445.026874145
 20
363.0221181921
 10
-452.4649813007
 20
360.3212641281
 10
-460.0574965501
 20
357.8445348739
 10
-467.7909206782
 20
355.5963339638
 10
-475.6515039391
 20
353.5806586168
 10
-483.6252705026
 20
351.8010926303
 10
-491.6980433027
 20
350.2608000076
 10
-499.855469244
 20
348.9625193328
 10
-508.0830447209
 20
347.9085589015
 10
-516.3661414044
 20
347.1007926169
 10
-524.6900322509
 20
346.540656658
 10
-533.0399176863
 20
346.2291469261
 10
-541.4009519189
 20
346.1668172742
 10
-549.758269335
 20
346.353778522
 10
-558.0970109292
 20
346.7896982593
 10
-566.4023507232
 20
347.4738014368
 10
-574.6595221261
 20
348.4048717438
 10
-582.8538441883
 20
349.5812537715
 10
-590.9707477043
 20
351.0008559554
 10
-598.9958011159
 20
352.6611542948
 10
-606.9147361708
 20
354.5591968397
 10
-614.7134732917
 20
356.6916089398
 10
-622.3781466085
 20
359.0545992441
 10
-629.8951286117
 20
361.6439664422
 10
-637.2510543816
 20
364.4551067337
 10
-644.4328453507
 20
367.4830220137
 10
-651.4277325568
 20
370.7223287593
 10
-658.2232793455
 20
374.1672676013
 10
-664.8074034828
 20
377.8117135643
 10
-671.1683986362
 20
381.6491869563
 10
-677.2949551884
 20
385.6728648896
 10
-683.1761803455
 20
389.8755934117
 10
-688.8016175037
 20
394.2499002247
 10
-694.1612648412
 20
398.7880079707
 10
-699.2455931004
 20
403.4818480597
 10
-704.0455625313
 20
408.3230750153
 10
-708.5526389634
 20
413.3030813127
 10
-712.7588089794
 20
418.4130126824
 10
-716.6565941623
 20
423.643783853
 10
-720.2390643924
 20
428.9860947041
 10
-723.4998501684
 20
434.430446802
 10
-726.4331539321
 20
439.9671602874
 10
-729.0337603766
 20
445.5863910858
 10
-731.2970457183
 20
451.2781484099
 10
-733.2189859187
 20
457.0323125227
 10
-734.7961638381
 20
462.8386527306
 10
-736.0257753118
 20
468.6868455726
 10
-736.9056341355
 20
474.5664931751
 10
-737.4341759522
 20
480.4671417394
 10
-737.6104610339
 20
486.3783001275
  0
LINE
  5
8B
330
1F
100
AcDbEntity
  8
0
  6
Continuous
 62
     7
370
    25
100
AcDbLine
 10
-764.3104610339
 20
-161.6216998725
 30
0.0
 11
-314.3104610339
 21
-161.6216998725
 31
0.0
  0
LWPOLYLINE
  5
8C
330
1F
100
AcDbEntity
  8
0
  6
Continuous
 62
     1
370
    25
100
AcDbPolyline
 90
       41
 70
   128
 43
0.0
 10
-539.3104610339
 20
120.1802485936
 10
-530.4214749762
 20
120.3044557148
 10
-521.5463680151
 20
120.676883144
 10
-512.6989975766
 20
121.2969493798
 10
-503.8931777792
 20
122.1636862624
 10
-495.1426578654
 20
123.2757404851
 10
-486.4611007332
 20
124.6313757072
 10
-477.8620616035
 20
126.2284752652
 10
-469.3589668551
 20
128.0645454778
 10
-460.9650930611
 20
130.1367195393
 10
-452.6935462591
 20
132.4417619958
 10
-444.5572414875
 20
134.9760737973
 10
-436.5688826203
 20
137.7356979166
 10
-428.7409425316
 20
140.7163255283
 10
-421.0856436207
 20
143.9133027362
 10
-413.6149387281
 20
147.3216378398
 10
-406.3404924725
 20
150.9360091286
 10
-399.2736630384
 20
154.7507731908
 10
-392.425484441
 20
158.7599737251
 10
-385.8066492983
 20
162.9573508409
 10
-379.4274921355
 20
167.336350832
 10
-373.2979732495
 20
171.8901364097
 10
-367.4276631563
 20
176.6115973785
 10
-361.8257276482
 20
181.4933617376
 10
-356.5009134826
 20
186.5278071913
 10
-351.4615347247
 20
191.7070730507
 10
-346.7154597663
 20
197.0230725071
 10
-342.2700990399
 20
202.4675052582
 10
-338.1323934486
 20
208.0318704687
 10
-334.3088035287
 20
213.7074800427
 10
-330.8052993617
 20
219.4854721898
 10
-327.6273512537
 20
225.356825261
 10
-324.7799211933
 20
231.3123718355
 10
-322.2674551045
 20
237.3428130343
 10
-320.0938759049
 20
243.4387330392
 10
-318.2625773805
 20
249.590613795
 10
-316.7764188864
 20
255.7888498699
 10
-315.6377208827
 20
262.0237634542
 10
-314.8482613113
 20
268.2856194704
 10
-314.4092728194
 20
274.5646407737
 10
-314.3104610339
 20
279.2792743605
  0
LWPOLYLINE
  5
8D
330
1F
100
AcDbEntity
  8
0
  6
Continuous
 62
     1
370
    25
100
AcDbPolyline
 90
       41
 70
   128
 43
0.0
 10
-764.3104610339
 20
279.2792743605
 10
-764.2116492484
 20
274.5646407737
 10
-763.7726607565
 20
268.2856194704
 10
-762.983201185
 20
262.0237634542
 10
-761.8445031814
 20
255.7888498699
 10
-760.3583446873
 20
249.590613795
 10
-758.5270461628
 20
243.4387330392
 10
-756.3534669633
 20
237.3428130343
 10
-753.8410008745
 20
231.3123718355
 10
-750.9935708141
 20
225.356825261
 10
-747.815622706
 20
219.4854721898
 10
-744.3121185391
 20
213.7074800427
 10
-740.4885286191
 20
208.0318704687
 10
-736.3508230279
 20
202.4675052582
 10
-731.9054623015
 20
197.0230725071
 10
-727.159387343
 20
191.7070730507
 10
-722.1200085852
 20
186.5278071913
 10
-716.7951944196
 20
181.4933617376
 10
-711.1932589115
 20
176.6115973785
 10
-705.3229488183
 20
171.8901364097
 10
-699.1934299322
 20
167.336350832
 10
-692.8142727695
 20
162.9573508409
 10
-686.1954376267
 20
158.7599737251
 10
-679.3472590293
 20
154.7507731908
 10
-672.2804295952
 20
150.9360091286
 10
-665.0059833397
 20
147.3216378398
 10
-657.535278447
 20
143.9133027362
 10
-649.8799795361
 20
140.7163255283
 10
-642.0520394475
 20
137.7356979166
 10
-634.0636805803
 20
134.9760737973
 10
-625.9273758086
 20
132.4417619958
 10
-617.6558290066
 20
130.1367195393
 10
-609.2619552127
 20
128.0645454778
 10
-600.7588604643
 20
126.2284752652
 10
-592.1598213346
 20
124.6313757072
 10
-583.4782642024
 20
123.2757404851
 10
-574.7277442885
 20
122.1636862624
 10
-565.9219244912
 20
121.2969493798
 10
-557.0745540526
 20
120.676883144
 10
-548.1994470915
 20
120.3044557148
 10
-539.3104610339
 20
120.1802485936
  0
LWPOLYLINE
  5
8E
330
1F
100
AcDbEntity
  8
0
  6
Continuous
 62
     1
370
    25
100
AcDbPolyline
 90
       37
 70
   128
 43
0.0
 10
-673.0186760515
 20
382.828787244
 10
-671.1683986362
 20
384.0083875318
 10
-664.8074034828
 20
387.8458609237
 10
-658.2232793455
 20
391.4903068867
 10
-651.4277325568
 20
394.9352457288
 10
-644.4328453507
 20
398.1745524744
 10
-637.2510543816
 20
401.2024677544
 10
-629.8951286117
 20
404.0136080458
 10
-622.3781466085
 20
406.6029752439
 10
-614.7134732917
 20
408.9659655483
 10
-606.9147361708
 20
411.0983776484
 10
-598.9958011159
 20
412.9964201933
 10
-590.9707477043
 20
414.6567185326
 10
-582.8538441883
 20
416.0763207166
 10
-574.6595221261
 20
417.2527027442
 10
-566.4023507232
 20
418.1837730513
 10
-558.0970109292
 20
418.8678762287
 10
-549.758269335
 20
419.303795966
 10
-541.4009519189
 20
419.4907572139
 10
-533.0399176863
 20
419.4284275619
 10
-524.6900322509
 20
419.11691783
 10
-516.3661414044
 20
418.5567818712
 10
-508.0830447209
 20
417.7490155866
 10
-499.855469244
 20
416.6950551553
 10
-491.6980433027
 20
415.3967744805
 10
-483.6252705026
 20
413.8564818577
 10
-475.6515039391
 20
412.0769158712
 10
-467.7909206782
 20
410.0612405243
 10
-460.0574965501
 20
407.8130396141
 10
-452.4649813007
 20
405.33631036
 10
-445.026874145
 20
402.635456296
 10
-437.7563997661
 20
399.7152794421
 10
-430.6664848022
 20
396.5809717663
 10
-423.7697348632
 20
393.2381059532
 10
-417.0784121189
 20
389.6926254963
 10
-410.604413497
 20
385.9508341303
 10
-405.6022460163
 20
382.828787244
  0
LINE
  5
8F
330
1F
100
AcDbEntity
  8
0
  6
Continuous
 62
     1
370
    25
100
AcDbLine
 10
-539.3104610339
 20
120.1802485936
 30
0.0
 11
-314.3104610339
 21
120.1802485936
 31
0.0
  0
LINE
  5
90
330
1F
100
AcDbEntity
  8
0
  6
Continuous
 62
     1
370
    25
100
AcDbLine
 10
-764.3104610339
 20
120.1802485936
 30
0.0
 11
-539.3104610339
 21
120.1802485936
 31
0.0
  0
LINE
  5
91
330
1F
100
AcDbEntity
  8
0
  6
Continuous
 62
     7
370
    25
100
AcDbLine
 10
432.3873895715
 20
1361.589652846
 30
0.0
 11
225.2883638045
 21
1361.589652846
 31
0.0
  0
LINE
  5
92
330
1F
100
AcDbEntity
  8
0
  6
Continuous
 62
     7
370
    25
100
AcDbLine
 10
225.2883638045
 20
911.589652846
 30
0.0
 11
432.3873895714
 21
911.589652846
 31
0.0
  0
LINE
  5
93
330
1F
100
AcDbEntity
  8
0
  6
Continuous
 62
     7
370
    25
100
AcDbLine
 10
225.2883638045
 20
1361.589652846
 30
0.0
 11
159.3873895714
 21
1361.589652846
 31
0.0
  0
LINE
  5
94
330
1F
100
AcDbEntity
  8
0
  6
Continuous
 62
     7
370
    25
100
AcDbLine
 10
159.3873895714
 20
911.589652846
 30
0.0
 11
225.2883638045
 21
911.589652846
 31
0.0
  0
CIRCLE
  5
95
330
1F
100
AcDbEntity
  8
0
  6
Continuous
 62
     7
370
    25
100
AcDbCircle
 10
159.3873895714
 20
1136.589652846
 30
0.0
 40
198.3000000000002
  0
CIRCLE
  5
96
330
1F
100
AcDbEntity
  8
0
  6
Continuous
 62
     7
370
    25
100
AcDbCircle
 10
159.3873895714
 20
1136.589652846
 30
0.0
 40
225.0000000000002
  0
LWPOLYLINE
  5
97
330
1F
100
AcDbEntity
  8
0
  6
Continuous
 62
     7
370
    25
100
AcDbPolyline
 90
       81
 70
   128
 43
0.0
 10
432.3873895714
 20
1361.589652846
 10
438.6728518907
 20
1361.4139974506
 10
444.9485002066
 20
1360.8873055293
 10
451.2045358394
 20
1360.010399449
 10
457.431190732
 20
1358.7846483946
 10
463.618742702
 20
1357.2119662308
 10
469.7575306215
 20
1355.2948085141
 10
475.8379695018
 20
1353.0361686587
 10
481.8505654594
 20
1350.4395732625
 10
487.7859305395
 20
1347.5090766012
 10
493.6347973741
 20
1344.2492542973
 10
499.388033652
 20
1340.6651961764
 10
505.0366563775
 20
1336.7624983198
 10
510.5718458969
 20
1332.547254327
 10
515.9849596688
 20
1328.026045801
 10
521.2675457587
 20
1323.2059320723
 10
526.4113560353
 20
1318.0944391763
 10
531.4083590497
 20
1312.6995481023
 10
536.2507525747
 20
1307.0296823324
 10
540.9309757877
 20
1301.0936946889
 10
545.4417210757
 20
1294.9008535118
 10
549.7759454454
 20
1288.4608281876
 10
553.92688152
 20
1281.7836740513
 10
557.8880481056
 20
1274.8798166864
 10
561.6532603106
 20
1267.7600356468
 10
565.2166392033
 20
1260.4354476252
 10
568.5726209904
 20
1252.9174890965
 10
571.7159657049
 20
1245.2178984604
 10
574.641765387
 20
1237.3486977138
 10
577.3454517479
 20
1229.3221736794
 10
579.8228033022
 20
1221.1508588217
 10
582.0699519597
 20
1212.8475116789
 10
584.0833890644
 20
1204.4250969419
 10
585.8599708732
 20
1195.8967652115
 10
587.3969234647
 20
1187.2758324654
 10
588.6918470697
 20
1178.5757592665
 10
589.7427198188
 20
1169.8101297466
 10
590.5479008989
 20
1160.9926303954
 10
591.1061331154
 20
1152.1370286917
 10
591.4165448548
 20
1143.2571516061
 10
591.4786514462
 20
1134.3668640127
 10
591.2923559174
 20
1125.4800470402
 10
590.8579491469
 20
1116.6105763983
 10
590.1761094091
 20
1107.7723007127
 10
589.247901316
 20
1098.9790199016
 10
588.0747741542
 20
1090.2444636293
 10
586.6585596227
 20
1081.5822698683
 10
585.0014689722
 20
1073.0059636061
 10
583.106089553
 20
1064.5289357269
 10
580.9753807753
 20
1056.1644221033
 10
578.6126694877
 20
1047.9254829304
 10
576.0216447835
 20
1039.8249823338
 10
573.2063522403
 20
1031.8755682835
 10
570.171187603
 20
1024.089652846
 10
566.920889921
 20
1016.4793928039
 10
563.4605341484
 20
1009.056670675
 10
559.7955232197
 20
1001.8330761586
 10
555.9315796147
 20
994.8198880401
 10
551.8747364225
 20
988.0280565803
 10
547.6313279221
 20
981.4681864178
 10
543.2079796924
 20
975.150520011
 10
538.6115982663
 20
969.0849216462
 10
533.8493603479
 20
963.2808620352
 10
528.9287016064
 20
957.747403528
 10
523.8573050664
 20
952.4931859633
 10
518.6430891114
 20
947.526413178
 10
513.2941951207
 20
942.8548401983
 10
507.8189747574
 20
938.4857611309
 10
502.2259769281
 20
934.4259977741
 10
496.523934435
 20
930.6818889663
 10
490.7217503405
 20
927.2592806892
 10
484.8284840665
 20
924.1635169391
 10
478.8533372484
 20
921.3994313838
 10
472.805639369
 20
918.9713398147
 10
466.6948331904
 20
916.8830334085
 10
460.5304600111
 20
915.1377728078
 10
454.3221447681
 20
913.7382830299
 10
448.0795810087
 20
912.6867492119
 10
441.8125157552
 20
911.984813199
 10
435.5307342859
 20
911.6335709811
 10
432.3873895714
 20
911.589652846
  0
LWPOLYLINE
  5
98
330
1F
100
AcDbEntity
  8
0
  6
Continuous
 62
     7
370
    25
100
AcDbPolyline
 90
       32
 70
   128
 43
0.0
 10
319.3070870436
 20
1253.8439933218
 10
316.7314182032
 20
1248.7069243689
 10
313.4921114576
 20
1241.7120371628
 10
310.4641961776
 20
1234.5302461937
 10
307.6530558862
 20
1227.1743204238
 10
305.0636886881
 20
1219.6573384206
 10
302.7006983837
 20
1211.9926651038
 10
300.5682862836
 20
1204.193927983
 10
298.6702437387
 20
1196.274992928
 10
297.0099453994
 20
1188.2499395164
 10
295.5903432154
 20
1180.1330360004
 10
294.4139611878
 20
1171.9387139382
 10
293.4828908807
 20
1163.6815425353
 10
292.7987877033
 20
1155.3762027413
 10
292.3628679659
 20
1147.0374611471
 10
292.1759067181
 20
1138.680143731
 10
292.2382363701
 20
1130.3191094984
 10
292.549746102
 20
1121.9692240631
 10
293.1098820608
 20
1113.6453332166
 10
293.9176483454
 20
1105.362236533
 10
294.9716087767
 20
1097.1346610561
 10
296.2698894515
 20
1088.9772351148
 10
297.8101820742
 20
1080.9044623147
 10
299.5897480608
 20
1072.9306957512
 10
301.6054234077
 20
1065.0701124903
 10
303.8536243178
 20
1057.3366883623
 10
306.330353572
 20
1049.7441731129
 10
309.031207636
 20
1042.3060659572
 10
311.9513844899
 20
1035.0355915783
 10
315.0856921657
 20
1027.9456766143
 10
318.4285579787
 20
1021.0489266753
 10
319.3070870436
 20
1019.3353123702
  0
LWPOLYLINE
  5
99
330
1F
100
AcDbEntity
  8
0
  6
Continuous
 62
     1
370
    25
100
AcDbPolyline
 90
       41
 70
   128
 43
0.0
 10
384.3873895714
 20
1136.589652846
 10
384.2631824502
 20
1127.7006667884
 10
383.890755021
 20
1118.8255598273
 10
383.2706887852
 20
1109.9781893887
 10
382.4039519026
 20
1101.1723695913
 10
381.2918976799
 20
1092.4218496775
 10
379.9362624578
 20
1083.7402925453
 10
378.3391628998
 20
1075.1412534156
 10
376.5030926872
 20
1066.6381586672
 10
374.4309186257
 20
1058.2442848733
 10
372.1258761692
 20
1049.9727380713
 10
369.5915643677
 20
1041.8364332996
 10
366.8319402484
 20
1033.8480744324
 10
363.8513126367
 20
1026.0201343438
 10
360.6543354289
 20
1018.3648354328
 10
357.2460003252
 20
1010.8941305402
 10
353.6316290364
 20
1003.6196842847
 10
349.8168649742
 20
996.5528548505
 10
345.8076644399
 20
989.7046762531
 10
341.6102873242
 20
983.0858411104
 10
337.2312873331
 20
976.7066839477
 10
332.6775017553
 20
970.5771650616
 10
327.9560407865
 20
964.7068549684
 10
323.0742764274
 20
959.1049194603
 10
318.0398309737
 20
953.7801052947
 10
312.8605651143
 20
948.7407265368
 10
307.544565658
 20
943.9946515784
 10
302.1001329068
 20
939.549290852
 10
296.5357676964
 20
935.4115852608
 10
290.8601581223
 20
931.5879953408
 10
285.0821659752
 20
928.0844911738
 10
279.210812904
 20
924.9065430658
 10
273.2552663295
 20
922.0591130054
 10
267.2248251307
 20
919.5466469166
 10
261.1289051258
 20
917.3730677171
 10
254.97702437
 20
915.5417691926
 10
248.7787882951
 20
914.0556106985
 10
242.5438747108
 20
912.9169126949
 10
236.2820186946
 20
912.1274531234
 10
230.0029973913
 20
911.6884646315
 10
225.2883638045
 20
911.589652846
  0
LWPOLYLINE
  5
9A
330
1F
100
AcDbEntity
  8
0
  6
Continuous
 62
     1
370
    25
100
AcDbPolyline
 90
       41
 70
   128
 43
0.0
 10
225.2883638045
 20
1361.589652846
 10
230.0029973913
 20
1361.4908410605
 10
236.2820186946
 20
1361.0518525686
 10
242.5438747108
 20
1360.2623929972
 10
248.7787882951
 20
1359.1236949935
 10
254.97702437
 20
1357.6375364994
 10
261.1289051258
 20
1355.8062379749
 10
267.2248251307
 20
1353.6326587754
 10
273.2552663295
 20
1351.1201926866
 10
279.210812904
 20
1348.2727626262
 10
285.0821659752
 20
1345.0948145182
 10
290.8601581223
 20
1341.5913103512
 10
296.5357676964
 20
1337.7677204313
 10
302.1001329068
 20
1333.63001484
 10
307.544565658
 20
1329.1846541136
 10
312.8605651143
 20
1324.4385791552
 10
318.0398309737
 20
1319.3992003973
 10
323.0742764274
 20
1314.0743862317
 10
327.9560407865
 20
1308.4724507236
 10
332.6775017553
 20
1302.6021406304
 10
337.2312873331
 20
1296.4726217443
 10
341.6102873242
 20
1290.0934645816
 10
345.8076644399
 20
1283.4746294389
 10
349.8168649742
 20
1276.6264508415
 10
353.6316290364
 20
1269.5596214074
 10
357.2460003252
 20
1262.2851751518
 10
360.6543354289
 20
1254.8144702592
 10
363.8513126367
 20
1247.1591713483
 10
366.8319402484
 20
1239.3312312596
 10
369.5915643677
 20
1231.3428723924
 10
372.1258761692
 20
1223.2065676208
 10
374.4309186257
 20
1214.9350208187
 10
376.5030926872
 20
1206.5411470248
 10
378.3391628998
 20
1198.0380522764
 10
379.9362624578
 20
1189.4390131467
 10
381.2918976799
 20
1180.7574560145
 10
382.4039519026
 20
1172.0069361007
 10
383.2706887852
 20
1163.2011163033
 10
383.890755021
 20
1154.3537458647
 10
384.2631824502
 20
1145.4786389036
 10
384.3873895714
 20
1136.589652846
  0
LWPOLYLINE
  5
9B
330
1F
100
AcDbEntity
  8
0
  6
Continuous
 62
     1
370
    25
100
AcDbPolyline
 90
       67
 70
   128
 43
0.0
 10
197.9912865036
 20
1331.0957687952
 10
195.9423761997
 20
1330.4981777308
 10
190.1882120868
 20
1328.5762375304
 10
184.4964547628
 20
1326.3129521887
 10
178.8772239644
 20
1323.7123457443
 10
173.340510479
 20
1320.7790419805
 10
167.8961583811
 20
1317.5182562045
 10
162.5538475299
 20
1313.9357859744
 10
157.3230763594
 20
1310.0380007915
 10
152.2131449897
 20
1305.8318307756
 10
147.2331386923
 20
1301.3247543434
 10
142.3919117366
 20
1296.5247849125
 10
137.6980716476
 20
1291.4404566533
 10
133.1599639017
 20
1286.0808093159
 10
128.7856570887
 20
1280.4553721576
 10
124.5829285666
 20
1274.5741470006
 10
120.5592506333
 20
1268.4475904483
 10
116.7217772413
 20
1262.086595295
 10
113.0773312783
 20
1255.5024711577
 10
109.6323924362
 20
1248.7069243689
 10
106.3930856906
 20
1241.7120371628
 10
103.3651704107
 20
1234.5302461937
 10
100.5540301192
 20
1227.1743204238
 10
97.9646629211
 20
1219.6573384206
 10
95.6016726167
 20
1211.9926651038
 10
93.4692605167
 20
1204.193927983
 10
91.5712179718
 20
1196.274992928
 10
89.9109196324
 20
1188.2499395164
 10
88.4913174484
 20
1180.1330360004
 10
87.3149354208
 20
1171.9387139382
 10
86.3838651137
 20
1163.6815425353
 10
85.6997619363
 20
1155.3762027413
 10
85.263842199
 20
1147.0374611471
 10
85.0768809511
 20
1138.680143731
 10
85.1392106031
 20
1130.3191094984
 10
85.450720335
 20
1121.9692240631
 10
86.0108562939
 20
1113.6453332166
 10
86.8186225784
 20
1105.362236533
 10
87.8725830097
 20
1097.1346610561
 10
89.1708636846
 20
1088.9772351148
 10
90.7111563073
 20
1080.9044623147
 10
92.4907222938
 20
1072.9306957512
 10
94.5063976407
 20
1065.0701124903
 10
96.7545985509
 20
1057.3366883623
 10
99.2313278051
 20
1049.7441731129
 10
101.932181869
 20
1042.3060659572
 10
104.8523587229
 20
1035.0355915783
 10
107.9866663987
 20
1027.9456766143
 10
111.3295322118
 20
1021.0489266753
 10
114.8750126687
 20
1014.357603931
 10
118.6168040347
 20
1007.8836053091
 10
122.5482535412
 20
1001.6384413428
 10
126.6623712144
 20
995.6332157058
 10
130.9518423033
 20
989.8786054702
 10
135.4090402848
 20
984.3848421228
 10
140.0260404236
 20
979.1616933745
 10
144.7946338618
 20
974.2184457931
 10
149.7063422144
 20
969.5638882924
 10
154.7524326432
 20
965.2062965058
 10
159.9239333835
 20
961.1534180725
 10
165.2116496958
 20
957.4124588625
 10
170.6061802134
 20
953.9900701646
 10
176.0979336579
 20
950.8923368611
 10
181.6771458921
 20
948.1247666088
 10
187.3338972802
 20
945.6922800466
 10
193.0581303247
 20
943.5992020468
 10
197.9912865036
 20
942.0835368968
  0
INSERT
  5
A7
330
1F
100
AcDbEntity
  8
FORMAT
 62
     7
100
AcDbBlockReference
  2
SW_CENTERMARKSYMBOL_0
 10
159.3873895714
 20
1136.589652846
 30
0.0
  0
LINE
  5
A8
330
1F
100
AcDbEntity
  8
0
  6
Continuous
 62
     7
370
    25
100
AcDbLine
 10
825.1105960603
 20
120.1802485936
 30
0.0
 11
825.1105960603
 21
-161.6216998725
 31
0.0
  0
LINE
  5
A9
330
1F
100
AcDbEntity
  8
0
  6
Continuous
 62
     7
370
    25
100
AcDbLine
 10
1275.1105960603
 20
-161.6216998725
 30
0.0
 11
1275.1105960603
 21
120.1802485936
 31
0.0
  0
LINE
  5
AA
330
1F
100
AcDbEntity
  8
0
  6
Continuous
 62
     7
370
    25
100
AcDbLine
 10
1275.1105960603
 20
120.1802485936
 30
0.0
 11
1275.1105960603
 21
279.2792743605
 31
0.0
  0
LINE
  5
AB
330
1F
100
AcDbEntity
  8
0
  6
Continuous
 62
     7
370
    25
100
AcDbLine
 10
825.1105960603
 20
279.2792743605
 30
0.0
 11
825.1105960603
 21
120.1802485936
 31
0.0
  0
LINE
  5
AC
330
1F
100
AcDbEntity
  8
0
  6
Continuous
 62
     7
370
    25
100
AcDbLine
 10
825.1105960603
 20
486.3783001275
 30
0.0
 11
825.1105960603
 21
279.2792743605
 31
0.0
  0
LINE
  5
AD
330
1F
100
AcDbEntity
  8
0
  6
Continuous
 62
     7
370
    25
100
AcDbLine
 10
1275.1105960603
 20
279.2792743605
 30
0.0
 11
1275.1105960603
 21
486.3783001275
 31
0.0
  0
LINE
  5
AE
330
1F
100
AcDbEntity
  8
0
  6
Continuous
 62
     7
370
    25
100
AcDbLine
 10
825.1105960603
 20
-161.6216998725
 30
0.0
 11
1275.1105960603
 21
-161.6216998725
 31
0.0
  0
LWPOLYLINE
  5
AF
330
1F
100
AcDbEntity
  8
0
  6
Continuous
 62
     7
370
    25
100
AcDbPolyline
 90
       81
 70
   128
 43
0.0
 10
825.1105960603
 20
486.3783001275
 10
825.1545141954
 20
489.521644842
 10
825.5057564133
 20
495.8034263112
 10
826.2076924262
 20
502.0704915648
 10
827.2592262442
 20
508.3130553242
 10
828.6587160221
 20
514.5213705672
 10
830.4039766228
 20
520.6857437464
 10
832.492283029
 20
526.796549925
 10
834.9203745981
 20
532.8442478045
 10
837.6844601534
 20
538.8193946225
 10
840.7802239035
 20
544.7126608966
 10
844.2028321806
 20
550.5148449911
 10
847.9469409884
 20
556.2168874842
 10
852.0067043452
 20
561.8098853135
 10
856.3757834127
 20
567.2851056768
 10
861.0473563923
 20
572.6339996674
 10
866.0141291776
 20
577.8482156224
 10
871.2683467423
 20
582.9196121625
 10
876.8018052495
 20
587.840270904
 10
882.6058648605
 20
592.6025088224
 10
888.6714632253
 20
597.1988902484
 10
894.9891296321
 20
601.6222384782
 10
901.5489997946
 20
605.8656469785
 10
908.3408312544
 20
609.9224901708
 10
915.3540193729
 20
613.7864337758
 10
922.5776138893
 20
617.4514447044
 10
930.0003360182
 20
620.9118004771
 10
937.6105960603
 20
624.1620981591
 10
945.3965114978
 20
627.1972627963
 10
953.3459255481
 20
630.0125553396
 10
961.4464261447
 20
632.6035800438
 10
969.6853653176
 20
634.9662913313
 10
978.0498789412
 20
637.0970001091
 10
986.5269068204
 20
638.9923795282
 10
995.1032130826
 20
640.6494701787
 10
1003.7654068436
 20
642.0656847103
 10
1012.499963116
 20
643.2388118721
 10
1021.293243927
 20
644.1670199652
 10
1030.1315196127
 20
644.8488597029
 10
1039.0009902545
 20
645.2832664735
 10
1047.887807227
 20
645.4695620023
 10
1056.7780948204
 20
645.4074554109
 10
1065.657971906
 20
645.0970436714
 10
1074.5135736097
 20
644.538811455
 10
1083.3310729609
 20
643.7336303749
 10
1092.0967024808
 20
642.6827576258
 10
1100.7967756797
 20
641.3878340207
 10
1109.4177084259
 20
639.8508814293
 10
1117.9460401562
 20
638.0742996204
 10
1126.3684548932
 20
636.0608625157
 10
1134.671802036
 20
633.8137138583
 10
1142.8431168937
 20
631.3363623039
 10
1150.8696409281
 20
628.632675943
 10
1158.7388416747
 20
625.7068762609
 10
1166.4384323108
 20
622.5635315465
 10
1173.9563908395
 20
619.2075497593
 10
1181.2809788611
 20
615.6441708667
 10
1188.4007599007
 20
611.8789586616
 10
1195.3046172656
 20
607.9177920761
 10
1201.9817714019
 20
603.7668560015
 10
1208.4217967261
 20
599.4326316318
 10
1214.6146379032
 20
594.9218863438
 10
1220.5506255467
 20
590.2416631308
 10
1226.2204913166
 20
585.3992696058
 10
1231.6153823906
 20
580.4022665914
 10
1236.7268752866
 20
575.2584563147
 10
1241.5469890153
 20
569.9758702249
 10
1246.0681975413
 20
564.562756453
 10
1250.2834415341
 20
559.0275669336
 10
1254.1861393907
 20
553.378944208
 10
1257.7701975116
 20
547.6257079302
 10
1261.0300198155
 20
541.7768410956
 10
1263.9605164768
 20
535.8414760155
 10
1266.557111873
 20
529.8288800578
 10
1268.8157517284
 20
523.7484411775
 10
1270.7329094451
 20
517.6096532581
 10
1272.3055916089
 20
511.4221012881
 10
1273.5313426634
 20
505.1954463955
 10
1274.4082487436
 20
498.9394107627
 10
1274.9349406649
 20
492.6637624467
 10
1275.1105960603
 20
486.3783001275
  0
LINE
  5
B0
330
1F
100
AcDbEntity
  8
0
  6
Continuous
 62
     1
370
    25
100
AcDbLine
 10
825.1105960603
 20
120.1802485936
 30
0.0
 11
1275.1105960603
 21
120.1802485936
 31
0.0
  0
LWPOLYLINE
  5
B1
330
1F
100
AcDbEntity
  8
0
  6
Continuous
 62
     1
370
    25
100
AcDbPolyline
 90
       82
 70
   128
 43
0.0
 10
825.1105960603
 20
279.2792743605
 10
825.121575862
 20
280.8510234177
 10
825.3850375254
 20
287.1349519622
 10
825.9993814719
 20
293.4066147985
 10
826.9636484764
 20
299.6562194698
 10
828.2763329504
 20
305.8740079602
 10
829.9353852929
 20
312.0502719311
 10
831.9382150907
 20
318.1753678794
 10
834.2816951628
 20
324.2397321949
 10
836.9621664431
 20
330.2338960926
 10
839.9754436941
 20
336.1485003972
 10
843.3168220409
 20
341.9743101561
 10
846.981084318
 20
347.702229059
 10
850.9625092148
 20
353.3233136404
 10
855.2548802088
 20
358.828787244
 10
859.8514952724
 20
364.2100537264
 10
864.7451773368
 20
369.4587108786
 10
869.9282854982
 20
374.5665635457
 10
875.3927269488
 20
379.525636422
 10
881.1299696116
 20
384.3281865039
 10
887.1310554635
 20
388.9667151795
 10
893.3866145211
 20
393.433979937
 10
899.8868794717
 20
397.7230056727
 10
906.6217009231
 20
401.8270955821
 10
913.5805632511
 20
405.739841616
 10
920.7526010183
 20
409.4551344858
 10
928.126615939
 20
412.9671732029
 10
935.6910943642
 20
416.2704741356
 10
943.434225259
 20
419.3598795717
 10
951.3439186435
 20
422.2305657714
 10
959.4078244705
 20
424.8780504988
 10
967.6133519083
 20
427.2982000209
 10
975.9476889998
 20
429.4872355616
 10
984.397822667
 20
431.4417392015
 10
992.9505590293
 20
433.1586592154
 10
1001.5925440041
 20
434.6353148364
 10
1010.3102841577
 20
435.8694004421
 10
1019.0901677738
 20
436.8589891542
 10
1027.9184861064
 20
437.6025358476
 10
1036.7814547842
 20
438.0988795622
 10
1045.6652353339
 20
438.3472453164
 10
1054.5559567867
 20
438.3472453164
 10
1063.4397373364
 20
438.0988795622
 10
1072.3027060143
 20
437.6025358476
 10
1081.1310243468
 20
436.8589891542
 10
1089.9109079629
 20
435.8694004421
 10
1098.6286481165
 20
434.6353148364
 10
1107.2706330913
 20
433.1586592154
 10
1115.8233694536
 20
431.4417392015
 10
1124.2735031208
 20
429.4872355616
 10
1132.6078402123
 20
427.2982000209
 10
1140.8133676501
 20
424.8780504988
 10
1148.8772734771
 20
422.2305657714
 10
1156.7869668616
 20
419.3598795717
 10
1164.5300977564
 20
416.2704741356
 10
1172.0945761817
 20
412.9671732029
 10
1179.4685911023
 20
409.4551344858
 10
1186.6406288695
 20
405.739841616
 10
1193.5994911975
 20
401.8270955821
 10
1200.3343126489
 20
397.7230056727
 10
1206.8345775995
 20
393.433979937
 10
1213.0901366571
 20
388.9667151795
 10
1219.091222509
 20
384.3281865039
 10
1224.8284651719
 20
379.525636422
 10
1230.2929066224
 20
374.5665635457
 10
1235.4760147839
 20
369.4587108786
 10
1240.3696968482
 20
364.2100537264
 10
1244.9663119118
 20
358.828787244
 10
1249.2586829059
 20
353.3233136404
 10
1253.2401078026
 20
347.702229059
 10
1256.9043700797
 20
341.9743101561
 10
1260.2457484265
 20
336.1485003972
 10
1263.2590256775
 20
330.2338960926
 10
1265.9394969579
 20
324.2397321949
 10
1268.2829770299
 20
318.1753678794
 10
1270.2858068277
 20
312.0502719311
 10
1271.9448591702
 20
305.8740079602
 10
1273.2575436442
 20
299.6562194698
 10
1274.2218106487
 20
293.4066147985
 10
1274.8361545952
 20
287.1349519622
 10
1275.0996162586
 20
280.8510234177
 10
1275.1105960603
 20
279.2792743605
  0
LINE
  5
B2
330
1F
100
AcDbEntity
  8
0
  6
Continuous
 62
     7
370
    25
100
AcDbLine
 10
396.041197438
 20
-406.0633399624
 30
0.0
 11
188.942171671
 21
-406.0633399624
 31
0.0
  0
LINE
  5
B3
330
1F
100
AcDbEntity
  8
0
  6
Continuous
 62
     7
370
    25
100
AcDbLine
 10
188.942171671
 20
-856.0633399624
 30
0.0
 11
396.041197438
 21
-856.0633399624
 31
0.0
  0
LINE
  5
B4
330
1F
100
AcDbEntity
  8
0
  6
Continuous
 62
     7
370
    25
100
AcDbLine
 10
123.041197438
 20
-856.0633399624
 30
0.0
 11
188.942171671
 21
-856.0633399624
 31
0.0
  0
LINE
  5
B5
330
1F
100
AcDbEntity
  8
0
  6
Continuous
 62
     7
370
    25
100
AcDbLine
 10
188.942171671
 20
-406.0633399624
 30
0.0
 11
123.041197438
 21
-406.0633399624
 31
0.0
  0
LWPOLYLINE
  5
B6
330
1F
100
AcDbEntity
  8
0
  6
Continuous
 62
     7
370
    25
100
AcDbPolyline
 90
      160
 70
   128
 43
0.0
 10
396.041197438
 20
-856.0633399624
 10
402.3266597572
 20
-855.8876845669
 10
408.6023080731
 20
-855.3609926456
 10
414.8583437059
 20
-854.4840865654
 10
421.0849985985
 20
-853.258335511
 10
427.2725505685
 20
-851.6856533472
 10
433.411338488
 20
-849.7684956305
 10
439.4917773683
 20
-847.509855775
 10
445.5043733259
 20
-844.9132603789
 10
451.439738406
 20
-841.9827637175
 10
457.2886052406
 20
-838.7229414136
 10
463.0418415185
 20
-835.1388832928
 10
468.690464244
 20
-831.2361854362
 10
474.2256537634
 20
-827.0209414433
 10
479.6387675353
 20
-822.4997329174
 10
484.9213536252
 20
-817.6796191887
 10
490.0651639018
 20
-812.5681262926
 10
495.0621669162
 20
-807.1732352186
 10
499.9045604412
 20
-801.5033694487
 10
504.5847836542
 20
-795.5673818052
 10
509.0955289422
 20
-789.3745406282
 10
513.4297533119
 20
-782.934515304
 10
517.5806893865
 20
-776.2573611676
 10
521.5418559721
 20
-769.3535038028
 10
525.3070681771
 20
-762.2337227631
 10
528.8704470698
 20
-754.9091347416
 10
532.2264288569
 20
-747.3911762129
 10
535.3697735714
 20
-739.6915855768
 10
538.2955732535
 20
-731.8223848301
 10
540.9992596144
 20
-723.7958607957
 10
543.4766111687
 20
-715.6245459381
 10
545.7237598262
 20
-707.3211987953
 10
547.7371969309
 20
-698.8987840583
 10
549.5137787397
 20
-690.3704523279
 10
551.0507313312
 20
-681.7495195817
 10
552.3456549362
 20
-673.0494463829
 10
553.3965276853
 20
-664.2838168629
 10
554.2017087654
 20
-655.4663175118
 10
554.7599409819
 20
-646.610715808
 10
555.0703527213
 20
-637.7308387224
 10
555.1324593127
 20
-628.840551129
 10
554.9461637839
 20
-619.9537341565
 10
554.5117570134
 20
-611.0842635147
 10
553.8299172756
 20
-602.2459878291
 10
552.9017091825
 20
-593.452707018
 10
551.7285820208
 20
-584.7181507456
 10
550.3123674892
 20
-576.0559569847
 10
548.6552768387
 20
-567.4796507225
 10
546.7598974195
 20
-559.0026228432
 10
544.6291886418
 20
-550.6381092196
 10
542.2664773542
 20
-542.3991700468
 10
539.67545265
 20
-534.2986694501
 10
536.8601601068
 20
-526.3492553999
 10
533.8249954695
 20
-518.5633399624
 10
530.5746977875
 20
-510.9530799203
 10
527.1143420149
 20
-503.5303577913
 10
523.4493310862
 20
-496.3067632749
 10
519.5853874812
 20
-489.2935751565
 10
515.528544289
 20
-482.5017436967
 10
511.2851357886
 20
-475.9418735341
 10
506.8617875589
 20
-469.6242071274
 10
502.2654061328
 20
-463.5586087626
 10
497.5031682144
 20
-457.7545491515
 10
492.5825094729
 20
-452.2210906444
 10
487.5111129329
 20
-446.9668730796
 10
482.2968969779
 20
-442.0001002944
 10
476.9480029872
 20
-437.3285273147
 10
471.4727826239
 20
-432.9594482473
 10
465.8797847946
 20
-428.8996848904
 10
460.1777423015
 20
-425.1555760827
 10
454.3755582071
 20
-421.7329678055
 10
448.482291933
 20
-418.6372040555
 10
442.5071451149
 20
-415.8731185001
 10
436.4594472355
 20
-413.445026931
 10
430.3486410569
 20
-411.3567205248
 10
424.1842678776
 20
-409.6114599242
 10
417.9759526346
 20
-408.2119701462
 10
411.7333888752
 20
-407.1604363282
 10
405.4663236217
 20
-406.4585003154
 10
399.1845421524
 20
-406.1072580975
 10
392.8978527235
 20
-406.1072580975
 10
386.6160712542
 20
-406.4585003154
 10
380.3490060007
 20
-407.1604363282
 10
374.1064422413
 20
-408.2119701462
 10
367.8981269983
 20
-409.6114599242
 10
361.733753819
 20
-411.3567205248
 10
355.6229476404
 20
-413.445026931
 10
349.575249761
 20
-415.8731185001
 10
343.6001029429
 20
-418.6372040555
 10
337.7068366689
 20
-421.7329678055
 10
331.9046525744
 20
-425.1555760827
 10
326.2026100813
 20
-428.8996848904
 10
320.609612252
 20
-432.9594482473
 10
315.1343918887
 20
-437.3285273147
 10
309.785497898
 20
-442.0001002944
 10
304.571281943
 20
-446.9668730796
 10
299.499885403
 20
-452.2210906444
 10
294.5792266615
 20
-457.7545491515
 10
289.8169887431
 20
-463.5586087626
 10
285.220607317
 20
-469.6242071274
 10
280.7972590873
 20
-475.9418735341
 10
276.5538505869
 20
-482.5017436967
 10
272.4970073947
 20
-489.2935751565
 10
268.6330637897
 20
-496.3067632749
 10
264.968052861
 20
-503.5303577913
 10
261.5076970884
 20
-510.9530799203
 10
258.2573994064
 20
-518.5633399624
 10
255.2222347691
 20
-526.3492553999
 10
252.4069422259
 20
-534.2986694501
 10
249.8159175217
 20
-542.3991700468
 10
247.4532062341
 20
-550.6381092196
 10
245.3224974564
 20
-559.0026228432
 10
243.4271180372
 20
-567.4796507225
 10
241.7700273867
 20
-576.0559569847
 10
240.3538128552
 20
-584.7181507456
 10
239.1806856934
 20
-593.452707018
 10
238.2524776003
 20
-602.2459878291
 10
237.5706378625
 20
-611.0842635147
 10
237.136231092
 20
-619.9537341565
 10
236.9499355632
 20
-628.840551129
 10
237.0120421546
 20
-637.7308387224
 10
237.322453894
 20
-646.610715808
 10
237.8806861105
 20
-655.4663175118
 10
238.6858671906
 20
-664.2838168629
 10
239.7367399397
 20
-673.0494463829
 10
241.0316635447
 20
-681.7495195817
 10
242.5686161362
 20
-690.3704523279
 10
244.345197945
 20
-698.8987840583
 10
246.3586350497
 20
-707.3211987953
 10
248.6057837072
 20
-715.6245459381
 10
251.0831352615
 20
-723.7958607957
 10
253.7868216224
 20
-731.8223848301
 10
256.7126213045
 20
-739.6915855768
 10
259.855966019
 20
-747.3911762129
 10
263.2119478061
 20
-754.9091347416
 10
266.7753266988
 20
-762.2337227631
 10
270.5405389038
 20
-769.3535038028
 10
274.5017054894
 20
-776.2573611676
 10
278.652641564
 20
-782.934515304
 10
282.9868659337
 20
-789.3745406282
 10
287.4976112217
 20
-795.5673818052
 10
292.1778344347
 20
-801.5033694487
 10
297.0202279597
 20
-807.1732352186
 10
302.0172309741
 20
-812.5681262926
 10
307.1610412507
 20
-817.6796191887
 10
312.4436273406
 20
-822.4997329174
 10
317.8567411125
 20
-827.0209414434
 10
323.3919306319
 20
-831.2361854362
 10
329.0405533574
 20
-835.1388832928
 10
334.7937896353
 20
-838.7229414136
 10
340.6426564699
 20
-841.9827637175
 10
346.57802155
 20
-844.9132603789
 10
352.5906175076
 20
-847.509855775
 10
358.6710563879
 20
-849.7684956305
 10
364.8098443074
 20
-851.6856533472
 10
370.9973962774
 20
-853.258335511
 10
377.22405117
 20
-854.4840865654
 10
383.4800868028
 20
-855.3609926456
 10
389.7557351187
 20
-855.8876845669
 10
396.041197438
 20
-856.0633399624
  0
LWPOLYLINE
  5
B7
330
1F
100
AcDbEntity
  8
0
  6
Continuous
 62
     7
370
    25
100
AcDbPolyline
 90
      150
 70
   128
 43
0.0
 10
396.041197438
 20
-829.3633399624
 10
390.1300390498
 20
-829.1870548806
 10
384.2293904856
 20
-828.6585130639
 10
378.349742883
 20
-827.7786542403
 10
372.5015500411
 20
-826.5490427666
 10
366.6952098332
 20
-824.9718648472
 10
360.9410457203
 20
-823.0499246468
 10
355.2492883963
 20
-820.786639305
 10
349.6300575979
 20
-818.1860328606
 10
344.0933441125
 20
-815.2527290969
 10
338.6489920145
 20
-811.9919433209
 10
333.3066811634
 20
-808.4094730908
 10
328.0759099929
 20
-804.5116879078
 10
322.9659786231
 20
-800.3055178919
 10
317.9859723257
 20
-795.7984414598
 10
313.1447453701
 20
-790.9984720289
 10
308.4509052811
 20
-785.9141437696
 10
303.9127975351
 20
-780.5544964322
 10
299.5384907222
 20
-774.929059274
 10
295.3357622
 20
-769.0478341169
 10
291.3120842667
 20
-762.9212775647
 10
287.4746108748
 20
-756.5602824113
 10
283.8301649118
 20
-749.976158274
 10
280.3852260697
 20
-743.1806114852
 10
277.1459193241
 20
-736.1857242792
 10
274.1180040441
 20
-729.0039333101
 10
271.3068637527
 20
-721.6480075401
 10
268.7174965546
 20
-714.1310255369
 10
266.3545062502
 20
-706.4663522202
 10
264.2220941501
 20
-698.6676150993
 10
262.3240516052
 20
-690.7486800443
 10
260.6637532659
 20
-682.7236266328
 10
259.2441510819
 20
-674.6067231168
 10
258.0677690543
 20
-666.4124010546
 10
257.1366987472
 20
-658.1552296517
 10
256.4525955698
 20
-649.8498898576
 10
256.0166758324
 20
-641.5111482634
 10
255.8297145846
 20
-633.1538308474
 10
255.8920442366
 20
-624.7927966148
 10
256.2035539685
 20
-616.4429111794
 10
256.7636899273
 20
-608.1190203329
 10
257.5714562119
 20
-599.8359236494
 10
258.6254166432
 20
-591.6083481725
 10
259.923697318
 20
-583.4509222312
 10
261.4639899407
 20
-575.378149431
 10
263.2435559273
 20
-567.4043828676
 10
265.2592312742
 20
-559.5437996067
 10
267.5074321843
 20
-551.8103754786
 10
269.9841614385
 20
-544.2178602292
 10
272.6850155025
 20
-536.7797530735
 10
275.6051923564
 20
-529.5092786946
 10
278.7395000322
 20
-522.4193637307
 10
282.0823658452
 20
-515.5226137917
 10
285.6278463022
 20
-508.8312910474
 10
289.3696376682
 20
-502.3572924255
 10
293.3010871747
 20
-496.1121284592
 10
297.4152048479
 20
-490.1069028222
 10
301.7046759368
 20
-484.3522925865
 10
306.1618739183
 20
-478.8585292391
 10
310.778874057
 20
-473.6353804908
 10
315.5474674953
 20
-468.6921329094
 10
320.4591758479
 20
-464.0375754088
 10
325.5052662767
 20
-459.6799836222
 10
330.676767017
 20
-455.6271051889
 10
335.9644833293
 20
-451.8861459788
 10
341.3590138469
 20
-448.463757281
 10
346.8507672914
 20
-445.3660239775
 10
352.4299795255
 20
-442.5984537252
 10
358.0867309137
 20
-440.165967163
 10
363.8109639582
 20
-438.0728891632
 10
369.5925011817
 20
-436.3229411421
 10
375.4210632219
 20
-434.9192344434
 10
381.2862871083
 20
-433.8642648065
 10
387.1777446868
 20
-433.1599079288
 10
393.0849611608
 20
-432.8074161312
 10
398.9974337151
 20
-432.8074161312
 10
404.9046501891
 20
-433.1599079288
 10
410.7961077676
 20
-433.8642648065
 10
416.661331654
 20
-434.9192344434
 10
422.4898936942
 20
-436.3229411421
 10
428.2714309177
 20
-438.0728891632
 10
433.9956639622
 20
-440.165967163
 10
439.6524153504
 20
-442.5984537252
 10
445.2316275845
 20
-445.3660239775
 10
450.723381029
 20
-448.463757281
 10
456.1179115466
 20
-451.8861459788
 10
461.4056278589
 20
-455.6271051889
 10
466.5771285992
 20
-459.6799836222
 10
471.623219028
 20
-464.0375754088
 10
476.5349273806
 20
-468.6921329094
 10
481.3035208189
 20
-473.6353804908
 10
485.9205209576
 20
-478.8585292391
 10
490.3777189391
 20
-484.3522925865
 10
494.667190028
 20
-490.1069028222
 10
498.7813077012
 20
-496.1121284592
 10
502.7127572077
 20
-502.3572924255
 10
506.4545485737
 20
-508.8312910474
 10
510.0000290307
 20
-515.5226137917
 10
513.3428948438
 20
-522.4193637307
 10
516.4772025195
 20
-529.5092786946
 10
519.3973793734
 20
-536.7797530735
 10
522.0982334374
 20
-544.2178602292
 10
524.5749626916
 20
-551.8103754786
 10
526.8231636017
 20
-559.5437996067
 10
528.8388389486
 20
-567.4043828676
 10
530.6184049352
 20
-575.378149431
 10
532.1586975579
 20
-583.4509222312
 10
533.4569782327
 20
-591.6083481725
 10
534.510938664
 20
-599.8359236494
 10
535.3187049486
 20
-608.1190203329
 10
535.8788409074
 20
-616.4429111794
 10
536.1903506393
 20
-624.7927966148
 10
536.2526802913
 20
-633.1538308474
 10
536.0657190435
 20
-641.5111482634
 10
535.6297993061
 20
-649.8498898576
 10
534.9456961287
 20
-658.1552296517
 10
534.0146258216
 20
-666.4124010546
 10
532.838243794
 20
-674.6067231168
 10
531.41864161
 20
-682.7236266328
 10
529.7583432707
 20
-690.7486800443
 10
527.8603007258
 20
-698.6676150993
 10
525.7278886257
 20
-706.4663522202
 10
523.3648983213
 20
-714.1310255369
 10
520.7755311232
 20
-721.6480075401
 10
517.9643908318
 20
-729.0039333101
 10
514.9364755518
 20
-736.1857242792
 10
511.6971688062
 20
-743.1806114853
 10
508.2522299641
 20
-749.976158274
 10
504.6077840011
 20
-756.5602824113
 10
500.7703106092
 20
-762.9212775647
 10
496.7466326759
 20
-769.0478341169
 10
492.5439041537
 20
-774.929059274
 10
488.1695973408
 20
-780.5544964322
 10
483.6314895948
 20
-785.9141437696
 10
478.9376495058
 20
-790.9984720289
 10
474.0964225502
 20
-795.7984414598
 10
469.1164162528
 20
-800.3055178919
 10
464.006484883
 20
-804.5116879078
 10
458.7757137125
 20
-808.4094730908
 10
453.4334028614
 20
-811.9919433209
 10
447.9890507634
 20
-815.2527290969
 10
442.452337278
 20
-818.1860328606
 10
436.8331064796
 20
-820.786639305
 10
431.1413491556
 20
-823.0499246468
 10
425.3871850427
 20
-824.9718648472
 10
419.5808448348
 20
-826.5490427666
 10
413.7326519929
 20
-827.7786542403
 10
407.8530043903
 20
-828.6585130639
 10
401.9523558261
 20
-829.1870548806
 10
396.041197438
 20
-829.3633399624
  0
ARC
  5
B8
330
1F
100
AcDbEntity
  8
0
  6
Continuous
 62
     7
370
    25
100
AcDbCircle
 10
123.041197438
 20
-631.0633399624
 30
0.0
 40
225.0000000000001
100
AcDbArc
 50
90.0
 51
270.0
  0
ARC
  5
B9
330
1F
100
AcDbEntity
  8
0
  6
Continuous
 62
     7
370
    25
100
AcDbCircle
 10
123.041197438
 20
-631.0633399624
 30
0.0
 40
198.3000000000001
100
AcDbArc
 50
323.750846543
 51
36.249153457
  0
LWPOLYLINE
  5
BA
330
1F
100
AcDbEntity
  8
0
  6
Continuous
 62
     1
370
    25
100
AcDbPolyline
 90
       82
 70
   128
 43
0.0
 10
188.942171671
 20
-406.0633399624
 10
187.3704226138
 20
-406.074319764
 10
181.0864940694
 20
-406.3377814274
 10
174.814831233
 20
-406.9521253739
 10
168.5652265617
 20
-407.9163923784
 10
162.3474380713
 20
-409.2290768524
 10
156.1711741004
 20
-410.888129195
 10
150.0460781521
 20
-412.8909589928
 10
143.9817138366
 20
-415.2344390648
 10
137.9875499389
 20
-417.9149103452
 10
132.0729456343
 20
-420.9281875961
 10
126.2471358754
 20
-424.269565943
 10
120.5192169725
 20
-427.9338282201
 10
114.8981323911
 20
-431.9152531168
 10
109.3926587875
 20
-436.2076241109
 10
104.0113923051
 20
-440.8042391745
 10
98.7627351529
 20
-445.6979212388
 10
93.6548824858
 20
-450.8810294003
 10
88.6958096095
 20
-456.3454708508
 10
83.8932595276
 20
-462.0827135137
 10
79.254730852
 20
-468.0837993655
 10
74.7874660945
 20
-474.3393584232
 10
70.4984403588
 20
-480.8396233738
 10
66.3943504494
 20
-487.5744448252
 10
62.4816044156
 20
-494.5333071532
 10
58.7663115457
 20
-501.7053449203
 10
55.2542728286
 20
-509.079359841
 10
51.9509718959
 20
-516.6438382663
 10
48.8615664598
 20
-524.3869691611
 10
45.9908802601
 20
-532.2966625456
 10
43.3433955327
 20
-540.3605683726
 10
40.9232460106
 20
-548.5660958103
 10
38.73421047
 20
-556.9004329018
 10
36.77970683
 20
-565.350566569
 10
35.0627868161
 20
-573.9033029313
 10
33.5861311951
 20
-582.5452879061
 10
32.3520455895
 20
-591.2630280598
 10
31.3624568773
 20
-600.0429116759
 10
30.6189101839
 20
-608.8712300084
 10
30.1225664693
 20
-617.7341986863
 10
29.8742007151
 20
-626.617979236
 10
29.8742007151
 20
-635.5087006888
 10
30.1225664693
 20
-644.3924812385
 10
30.6189101839
 20
-653.2554499163
 10
31.3624568773
 20
-662.0837682488
 10
32.3520455895
 20
-670.8636518649
 10
33.5861311951
 20
-679.5813920186
 10
35.0627868161
 20
-688.2233769934
 10
36.77970683
 20
-696.7761133557
 10
38.73421047
 20
-705.2262470229
 10
40.9232460106
 20
-713.5605841144
 10
43.3433955327
 20
-721.7661115522
 10
45.9908802602
 20
-729.8300173792
 10
48.8615664598
 20
-737.7397107637
 10
51.9509718959
 20
-745.4828416584
 10
55.2542728287
 20
-753.0473200837
 10
58.7663115457
 20
-760.4213350044
 10
62.4816044156
 20
-767.5933727716
 10
66.3943504494
 20
-774.5522350996
 10
70.4984403588
 20
-781.287056551
 10
74.7874660945
 20
-787.7873215015
 10
79.254730852
 20
-794.0428805592
 10
83.8932595276
 20
-800.0439664111
 10
88.6958096095
 20
-805.7812090739
 10
93.6548824858
 20
-811.2456505244
 10
98.7627351529
 20
-816.4287586859
 10
104.0113923051
 20
-821.3224407503
 10
109.3926587875
 20
-825.9190558139
 10
114.8981323911
 20
-830.2114268079
 10
120.5192169725
 20
-834.1928517047
 10
126.2471358754
 20
-837.8571139817
 10
132.0729456343
 20
-841.1984923286
 10
137.9875499389
 20
-844.2117695796
 10
143.9817138366
 20
-846.8922408599
 10
150.0460781521
 20
-849.235720932
 10
156.1711741004
 20
-851.2385507298
 10
162.3474380713
 20
-852.8976030723
 10
168.5652265617
 20
-854.2102875463
 10
174.814831233
 20
-855.1745545508
 10
181.0864940694
 20
-855.7888984973
 10
187.3704226138
 20
-856.0523601607
 10
188.942171671
 20
-856.0633399624
  0
LWPOLYLINE
  5
BB
330
1F
100
AcDbEntity
  8
0
  6
Continuous
 62
     1
370
    25
100
AcDbPolyline
 90
       37
 70
   128
 43
0.0
 10
292.4916845545
 20
-497.3551249448
 10
295.6137314407
 20
-502.3572924255
 10
299.3555228067
 20
-508.8312910474
 10
302.9010032637
 20
-515.5226137917
 10
306.2438690768
 20
-522.4193637307
 10
309.3781767526
 20
-529.5092786946
 10
312.2983536064
 20
-536.7797530735
 10
314.9992076704
 20
-544.2178602292
 10
317.4759369246
 20
-551.8103754786
 10
319.7241378347
 20
-559.5437996067
 10
321.7398131817
 20
-567.4043828676
 10
323.5193791682
 20
-575.378149431
 10
325.0596717909
 20
-583.4509222312
 10
326.3579524657
 20
-591.6083481725
 10
327.411912897
 20
-599.8359236494
 10
328.2196791816
 20
-608.1190203329
 10
328.7798151405
 20
-616.4429111794
 10
329.0913248724
 20
-624.7927966148
 10
329.1536545243
 20
-633.1538308474
 10
328.9666932765
 20
-641.5111482634
 10
328.5307735392
 20
-649.8498898576
 10
327.8466703617
 20
-658.1552296517
 10
326.9156000547
 20
-666.4124010546
 10
325.739218027
 20
-674.6067231168
 10
324.3196158431
 20
-682.7236266328
 10
322.6593175037
 20
-690.7486800443
 10
320.7612749588
 20
-698.6676150993
 10
318.6288628587
 20
-706.4663522202
 10
316.2658725544
 20
-714.1310255369
 10
313.6765053563
 20
-721.6480075401
 10
310.8653650648
 20
-729.0039333101
 10
307.8374497848
 20
-736.1857242792
 10
304.5981430392
 20
-743.1806114853
 10
301.1532041972
 20
-749.976158274
 10
297.5087582342
 20
-756.5602824113
 10
293.6712848422
 20
-762.9212775647
 10
292.4916845545
 20
-764.7715549799
  0
INSERT
  5
C7
330
1F
100
AcDbEntity
  8
FORMAT
 62
     7
100
AcDbBlockReference
  2
SW_CENTERMARKSYMBOL_1
 10
123.041197438
 20
-631.0633399624
 30
0.0
  0
LINE
  5
C8
330
1F
100
AcDbEntity
  8
0
  6
Continuous
 62
     7
370
    25
100
AcDbLine
 10
803.5690212476
 20
-879.4795618721
 30
0.0
 11
803.5690212476
 21
-1109.5823536636
 31
0.0
  0
LINE
  5
C9
330
1F
100
AcDbEntity
  8
0
  6
Continuous
 62
     7
370
    25
100
AcDbLine
 10
1253.5690212476
 20
-1109.5823536636
 30
0.0
 11
1253.5690212476
 21
-879.4795618721
 31
0.0
  0
LINE
  5
CA
330
1F
100
AcDbEntity
  8
0
  6
Continuous
 62
     7
370
    25
100
AcDbLine
 10
1026.753456803
 20
-356.5242000502
 30
0.0
 11
880.312331306
 21
-610.1676689841
 31
0.0
  0
LINE
  5
CB
330
1F
100
AcDbEntity
  8
0
  6
Continuous
 62
     7
370
    25
100
AcDbLine
 10
1270.0237627231
 20
-835.1676694793
 30
0.0
 11
1416.4648882201
 21
-581.5242005455
 31
0.0
  0
SPLINE
  5
CC
330
1F
100
AcDbEntity
  8
0
  6
Continuous
 62
     7
370
    25
100
AcDbSpline
210
0.0
220
0.0
230
1.0
 70
     8
 71
     3
 72
    32
 73
    28
 74
     0
 42
0.00000001
 43
0.00000001
 40
0.0
 40
0.0
 40
0.0
 40
0.0
 40
0.024159826633978
 40
0.0656816748843392
 40
0.1072255220325504
 40
0.1488026479908091
 40
0.1904251975390917
 40
0.2321050100177187
 40
0.2738534430473294
 40
0.3156811748121822
 40
0.3575979790190202
 40
0.399612467404853
 40
0.4417317959054069
 40
0.4839613326260492
 40
0.5263042888557146
 40
0.568761318808846
 40
0.6113300997731171
 40
0.6540049119009508
 40
0.6967762456853344
 40
0.7396304743580119
 40
0.7825496365203536
 40
0.8255113790515625
 40
0.8684803755463484
 40
0.9114240536562985
 40
0.9543080283813119
 40
0.9942508938432023
 40
1.0
 40
1.0
 40
1.0
 40
1.0
 10
880.3123313060446
 20
-610.1676689840862
 30
0.0
 10
879.1529434843286
 20
-612.1917116142158
 30
0.0
 10
876.0009947917949
 20
-617.6943384334517
 30
0.0
 10
871.0235264478059
 20
-626.7710253852603
 30
0.0
 10
865.4371127242883
 20
-637.4220158460874
 30
0.0
 10
860.0639857175164
 20
-648.1826647157483
 30
0.0
 10
854.9035529073652
 20
-659.0469209770722
 30
0.0
 10
849.960136467024
 20
-670.0116438580366
 30
0.0
 10
845.2370686971204
 20
-681.0729430458151
 30
0.0
 10
840.7383114181664
 20
-692.2270715915832
 30
0.0
 10
836.4680411606893
 20
-703.4701099235916
 30
0.0
 10
832.4307766745942
 20
-714.7979624279831
 30
0.0
 10
828.6313552612725
 20
-726.2062565755256
 30
0.0
 10
825.0749419501153
 20
-737.6902538829733
 30
0.0
 10
821.7670191887032
 20
-749.2447434887437
 30
0.0
 10
818.7133676183645
 20
-760.8639278192921
 30
0.0
 10
815.9200313280867
 20
-772.5413014025806
 30
0.0
 10
813.3932648761385
 20
-784.2695287550769
 30
0.0
 10
811.1394608555415
 20
-796.040328665129
 30
0.0
 10
809.1650491447035
 20
-807.8443758905784
 30
0.0
 10
807.4763937229396
 20
-819.6712294462313
 30
0.0
 10
806.0796856561905
 20
-831.5085099814008
 30
0.0
 10
804.9808471387098
 20
-843.3425084691115
 30
0.0
 10
804.1844754920243
 20
-855.1585086072648
 30
0.0
 10
803.7076241426935
 20
-866.6807684691553
 30
0.0
 10
803.5744628187083
 20
-874.7814386034813
 30
0.0
 10
803.5696294030143
 20
-878.9544949299792
 30
0.0
 10
803.5690212476002
 20
-879.4795618721447
 30
0.0
  0
SPLINE
  5
CD
330
1F
100
AcDbEntity
  8
0
  6
Continuous
 62
     7
370
    25
100
AcDbSpline
210
0.0
220
0.0
230
1.0
 70
     8
 71
     3
 72
    28
 73
    24
 74
     0
 42
0.00000001
 43
0.00000001
 40
0.0
 40
0.0
 40
0.0
 40
0.0
 40
0.0135371419835881
 40
0.0677670322010234
 40
0.1207136368457791
 40
0.1725852717705155
 40
0.2235794527711987
 40
0.2738810370023429
 40
0.3236605752261589
 40
0.3730728580670632
 40
0.4222556703077696
 40
0.4713287894050063
 40
0.5203932769815337
 40
0.5695308009018288
 40
0.6187822685903268
 40
0.6681981225321284
 40
0.7178107143294242
 40
0.7676356364000317
 40
0.8176732856734598
 40
0.8679107597783303
 40
0.9183240374864889
 40
0.968880391072908
 40
1.0
 40
1.0
 40
1.0
 40
1.0
 10
1253.567202328566
 20
-879.6713738318889
 30
0.0
 10
1253.5670103123
 20
-879.6800607359838
 30
0.0
 10
1253.566049077461
 20
-879.7235474416896
 30
0.0
 10
1253.574852031948
 20
-879.5047383850779
 30
0.0
 10
1253.615026747973
 20
-879.0032964543694
 30
0.0
 10
1253.701266859081
 20
-878.1914398080875
 30
0.0
 10
1253.84659318541
 20
-877.1088445048202
 30
0.0
 10
1254.063898730806
 20
-875.7583919771996
 30
0.0
 10
1254.364794966972
 20
-874.1532331273665
 30
0.0
 10
1254.75990883663
 20
-872.3047386148687
 30
0.0
 10
1255.258750474351
 20
-870.2259083534223
 30
0.0
 10
1255.869645722794
 20
-867.930727450336
 30
0.0
 10
1256.599609035909
 20
-865.4345749502929
 30
0.0
 10
1257.454074739775
 20
-862.7547004330643
 30
0.0
 10
1258.436827542227
 20
-859.9099163689436
 30
0.0
 10
1259.549869287024
 20
-856.920525691411
 30
0.0
 10
1260.793552161957
 20
-853.8077675291503
 30
0.0
 10
1262.166165594112
 20
-850.594167450814
 30
0.0
 10
1263.664329037779
 20
-847.3036443015101
 30
0.0
 10
1265.281118765088
 20
-843.9602685849615
 30
0.0
 10
1267.01287396346
 20
-840.591795664027
 30
0.0
 10
1268.599001543111
 20
-837.6502098975157
 30
0.0
 10
1269.637452968814
 20
-835.8563433393235
 30
0.0
 10
1270.033116530811
 20
-835.1728567413043
 30
0.0
  0
LWPOLYLINE
  5
CE
330
1F
100
AcDbEntity
  8
0
  6
Continuous
 62
     7
370
    25
100
AcDbPolyline
 90
      160
 70
   128
 43
0.0
 10
869.4699954806
 20
-1017.7364410835
 10
875.8796649211
 20
-1014.1796241667
 10
882.5277406662
 20
-1010.7717672871
 10
889.4038425348
 20
-1007.5181914085
 10
896.49723431
 20
-1004.4239766035
 10
903.7968405027
 20
-1001.4939541213
 10
911.2912636442
 20
-998.7326988441
 10
918.9688020826
 20
-996.1445221442
 10
926.8174682528
 20
-993.7334651524
 10
934.8250073944
 20
-991.5032924479
 10
942.9789166856
 20
-989.4574861807
 10
951.2664647649
 20
-987.5992406343
 10
959.6747116097
 20
-985.9314572387
 10
968.1905287408
 20
-984.4567400396
 10
976.8006197206
 20
-983.1773916329
 10
985.4915409141
 20
-982.0954095692
 10
994.2497224796
 20
-981.2124832351
 10
1003.0614895561
 20
-980.5299912153
 10
1011.9130836154
 20
-980.04899914
 10
1020.7906839442
 20
-979.7702580212
 10
1029.6804292233
 20
-979.6942030802
 10
1038.5684391708
 20
-979.8209530676
 10
1047.4408362142
 20
-980.1503100785
 10
1056.2837671587
 20
-980.6817598609
 10
1065.0834248175
 20
-981.4144726191
 10
1073.8260695696
 20
-982.3473043092
 10
1082.4980508131
 20
-983.4787984251
 10
1091.0858282787
 20
-984.8071882731
 10
1099.5759931713
 20
-986.3303997301
 10
1107.9552891062
 20
-988.0460544824
 10
1116.2106328077
 20
-989.9514737385
 10
1124.3291345363
 20
-992.0436824127
 10
1132.2981182155
 20
-994.3194137693
 10
1140.1051412231
 20
-996.775114524
 10
1147.7380138195
 20
-999.4069503917
 10
1155.1848181803
 20
-1002.2108120729
 10
1162.4339270043
 20
-1005.1823216705
 10
1169.4740216687
 20
-1008.3168395251
 10
1176.2941099014
 20
-1011.6094714591
 10
1182.8835429442
 20
-1015.0550764185
 10
1189.2320321795
 20
-1018.6482745003
 10
1195.3296651952
 20
-1022.3834553522
 10
1201.166921261
 20
-1026.2547869327
 10
1206.7346861946
 20
-1030.256224617
 10
1212.0242665918
 20
-1034.3815206353
 10
1217.0274034009
 20
-1038.6242338275
 10
1221.7362848177
 20
-1042.9777397005
 10
1226.1435584827
 20
-1047.4352407718
 10
1230.2423429613
 20
-1051.9897771826
 10
1234.0262384881
 20
-1056.634237565
 10
1237.4893369595
 20
-1061.3613701452
 10
1240.6262311582
 20
-1066.1637940671
 10
1243.4320231963
 20
-1071.0340109157
 10
1245.9023321626
 20
-1075.9644164255
 10
1248.033300963
 20
-1080.9473123537
 10
1249.8216023426
 20
-1085.9749184996
 10
1251.2644440811
 20
-1091.0393848532
 10
1252.3595733523
 20
-1096.1328038514
 10
1253.105280242
 20
-1101.2472227251
 10
1253.5004004173
 20
-1106.3746559163
 10
1253.544316945
 20
-1111.5070975468
 10
1253.2369612546
 20
-1116.6365339182
 10
1252.5788132456
 20
-1121.7549560244
 10
1251.570900538
 20
-1126.8543720571
 10
1250.2147968678
 20
-1131.9268198834
 10
1248.5126196299
 20
-1136.9643794781
 10
1246.4670265719
 20
-1141.9591852899
 10
1244.0812116448
 20
-1146.9034385225
 10
1241.3589000151
 20
-1151.7894193114
 10
1238.3043422494
 20
-1156.6094987776
 10
1234.9223076771
 20
-1161.3561509391
 10
1231.2180769436
 20
-1166.0219644621
 10
1227.1974337656
 20
-1170.5996542326
 10
1222.8666559
 20
-1175.0820727315
 10
1218.2325053424
 20
-1179.4622211943
 10
1213.3022177688
 20
-1183.7332605392
 10
1208.083491238
 20
-1187.8885220453
 10
1202.5844741719
 20
-1191.921517765
 10
1196.813752633
 20
-1195.8259506541
 10
1190.7803369179
 20
-1199.5957244043
 10
1184.493647489
 20
-1203.2249529613
 10
1177.9635002656
 20
-1206.7079697155
 10
1171.2000912974
 20
-1210.0393363498
 10
1164.2139808446
 20
-1213.2138513306
 10
1157.0160768895
 20
-1216.2265580296
 10
1149.6176181045
 20
-1219.0727524628
 10
1142.0301563049
 20
-1221.7479906357
 10
1134.2655384116
 20
-1224.2480954813
 10
1126.3358879536
 20
-1226.5691633827
 10
1118.2535861389
 20
-1228.7075702678
 10
1110.0312525223
 20
-1230.6599772683
 10
1101.6817253018
 20
-1232.4233359323
 10
1093.2180412728
 20
-1233.9948929845
 10
1084.6534154734
 20
-1235.3721946253
 10
1076.00122055
 20
-1236.5530903616
 10
1067.2749658779
 20
-1237.5357363648
 10
1058.488276468
 20
-1238.3185983499
 10
1049.6548716927
 20
-1238.9004539709
 10
1040.788543865
 20
-1239.2803947292
 10
1031.9031367032
 20
-1239.4578273925
 10
1023.0125237159
 20
-1239.4324749207
 10
1014.1305865399
 20
-1239.2043768987
 10
1005.2711932658
 20
-1238.7738894745
 10
996.4481767845
 20
-1238.1416848031
 10
987.6753131888
 20
-1237.308749997
 10
978.9663002638
 20
-1236.276385585
 10
970.3347360995
 20
-1235.0462034817
 10
961.7940978587
 20
-1233.6201244704
 10
953.357720734
 20
-1232.0003752041
 10
945.0387771269
 20
-1230.1894847291
 10
936.8502560805
 20
-1228.1902805358
 10
928.8049429981
 20
-1226.0058841444
 10
920.9153996813
 20
-1223.6397062304
 10
913.1939447152
 20
-1221.0954412998
 10
905.6526342353
 20
-1218.3770619202
 10
898.3032431027
 20
-1215.4888125185
 10
891.1572465192
 20
-1212.435202753
 10
884.2258021102
 20
-1209.2210004731
 10
877.5197325032
 20
-1205.851224274
 10
871.04950843
 20
-1202.3311356613
 10
864.8252323774
 20
-1198.6662308354
 10
858.8566228136
 20
-1194.8622321102
 10
853.1529990138
 20
-1190.9250789781
 10
847.7232665096
 20
-1186.8609188364
 10
842.5759031838
 20
-1182.6760973888
 10
837.7189460331
 20
-1178.377148737
 10
833.1599786196
 20
-1173.9707851792
 10
828.9061192297
 20
-1169.4638867289
 10
824.9640097598
 20
-1164.8634903731
 10
821.3398053461
 20
-1160.1767790846
 10
818.0391647534
 20
-1155.4110706067
 10
815.0672415402
 20
-1150.5738060275
 10
812.4286760118
 20
-1145.6725381615
 10
810.1275879751
 20
-1140.7149197565
 10
808.167570306
 20
-1135.7086915452
 10
806.5516833392
 20
-1130.6616701586
 10
805.2824500905
 20
-1125.5817359217
 10
804.361852317
 20
-1120.4768205486
 10
803.7913274228
 20
-1115.3548947587
 10
803.5717662148
 20
-1110.2239558311
 10
803.7035115117
 20
-1105.0920151179
 10
804.1863576089
 20
-1099.9670855353
 10
805.0195505996
 20
-1094.8571690524
 10
806.2017895518
 20
-1089.7702441974
 10
807.7312285397
 20
-1084.7142535995
 10
809.6054795258
 20
-1079.6970915878
 10
811.8216160899
 20
-1074.7265918652
 10
814.3761779976
 20
-1069.810515277
 10
817.2651766038
 20
-1064.9565376933
 10
820.4841010802
 20
-1060.1722380238
 10
824.0279254583
 20
-1055.4650863846
 10
827.8911164769
 20
-1050.8424324341
 10
832.067642222
 20
-1046.3114938978
 10
836.5509815442
 20
-1041.8793452982
 10
841.3341342416
 20
-1037.5529069094
 10
846.4096319889
 20
-1033.3389339514
 10
851.7695499989
 20
-1029.2440060425
 10
857.4055193959
 20
-1025.2745169267
 10
863.3087402827
 20
-1021.4366644901
 10
869.4699954806
 20
-1017.7364410835
  0
LWPOLYLINE
  5
CF
330
1F
100
AcDbEntity
  8
0
  6
Continuous
 62
     7
370
    25
100
AcDbPolyline
 90
      150
 70
   128
 43
0.0
 10
888.3497465383
 20
-1028.6354893764
 10
882.5632405269
 20
-1032.1198887634
 10
877.0363274654
 20
-1035.7420135862
 10
871.7788340035
 20
-1039.495423839
 10
866.8001077728
 20
-1043.3734460953
 10
862.1090007669
 20
-1047.3691853731
 10
857.7138536027
 20
-1051.4755373938
 10
853.6224806916
 20
-1055.6852012133
 10
849.8421563453
 20
-1059.990692203
 10
846.3796018425
 20
-1064.3843553571
 10
843.2409734787
 20
-1068.8583789027
 10
840.4318516208
 20
-1073.4048081893
 10
837.9572307847
 20
-1078.0155598315
 10
835.821510756
 20
-1082.6824360812
 10
834.0284887671
 20
-1087.3971394027
 10
832.5813527456
 20
-1092.1512872256
 10
831.4826756465
 20
-1096.9364268485
 10
830.7344108775
 20
-1101.7440504677
 10
830.3378888263
 20
-1106.565610304
 10
830.2938144944
 20
-1111.3925337999
 10
830.6022662445
 20
-1116.2162388616
 10
831.2626956606
 20
-1121.0281491175
 10
832.2739285233
 20
-1125.8197091667
 10
833.6341668974
 20
-1130.5823997905
 10
835.3409923288
 20
-1135.3077530985
 10
837.3913701442
 20
-1139.9873675852
 10
839.7816548465
 20
-1144.6129230667
 10
842.507596597
 20
-1149.1761954741
 10
845.5643487705
 20
-1153.6690714757
 10
848.9464765732
 20
-1158.0835629019
 10
852.6479667055
 20
-1162.4118209481
 10
856.6622380528
 20
-1166.6461501293
 10
860.9821533873
 20
-1170.7790219628
 10
865.600032057
 20
-1174.8030883533
 10
870.5076636424
 20
-1178.7111946577
 10
875.6963225534
 20
-1182.4963924055
 10
881.1567835439
 20
-1186.1519516532
 10
886.8793381135
 20
-1189.67137295
 10
892.853811769
 20
-1193.0483988932
 10
899.0695821144
 20
-1196.2770252539
 10
905.5155977367
 20
-1199.3515116523
 10
912.1803978554
 20
-1202.2663917637
 10
919.0521326991
 20
-1205.0164830376
 10
926.1185845741
 20
-1207.5968959123
 10
933.3671895868
 20
-1210.0030425076
 10
940.7850599819
 20
-1212.2306447828
 10
948.3590070567
 20
-1214.2757421424
 10
956.0755646096
 20
-1216.1346984779
 10
963.9210128829
 20
-1217.8042086326
 10
971.8814029559
 20
-1219.2813042786
 10
979.9425815455
 20
-1220.5633591936
 10
988.0902161703
 20
-1221.6480939309
 10
996.3098206334
 20
-1222.5335798715
 10
1004.586780778
 20
-1223.2182426539
 10
1012.9063804709
 20
-1223.7008649726
 10
1021.2538277675
 20
-1223.9805887427
 10
1029.6142812112
 20
-1224.0569166255
 10
1037.9728762209
 20
-1223.9297129129
 10
1046.3147515195
 20
-1223.5992037685
 10
1054.6250755574
 20
-1223.0659768254
 10
1062.8890728815
 20
-1222.3309801417
 10
1071.0920504063
 20
-1221.3955205146
 10
1079.219423537
 20
-1220.2612611573
 10
1087.2567421008
 20
-1218.9302187414
 10
1095.1897160387
 20
-1217.4047598119
 10
1103.0042408124
 20
-1215.687596579
 10
1110.6864224821
 20
-1213.7817820963
 10
1118.2226024091
 20
-1211.6907048324
 10
1125.5993815405
 20
-1209.4180826464
 10
1132.8036442322
 20
-1206.9679561775
 10
1139.8225815681
 20
-1204.3446816613
 10
1146.6437141338
 20
-1201.552923184
 10
1153.2549142044
 20
-1198.5976443904
 10
1159.6444273075
 20
-1195.4840996584
 10
1165.8008931219
 20
-1192.2178247567
 10
1171.7133656761
 20
-1188.8046270031
 10
1177.3713328098
 20
-1185.2505749386
 10
1182.7647348637
 20
-1181.561987538
 10
1187.8839825658
 20
-1177.7454229751
 10
1192.7199740807
 20
-1173.8076669624
 10
1197.2641111917
 20
-1169.7557206865
 10
1201.508314589
 20
-1165.5967883599
 10
1205.4450382339
 20
-1161.3382644126
 10
1209.0672827752
 20
-1156.9877203447
 10
1212.3686079945
 20
-1152.5528912647
 10
1215.343144256
 20
-1148.0416621371
 10
1217.9856029427
 20
-1143.4620537625
 10
1220.2912858595
 20
-1138.8222085175
 10
1222.2560935864
 20
-1134.1303758776
 10
1223.8765327669
 20
-1129.39489775
 10
1225.1497223192
 20
-1124.6241936421
 10
1226.0733985589
 20
-1119.8267456916
 10
1226.6459192232
 20
-1115.0110835859
 10
1226.8662663914
 20
-1110.1857693965
 10
1226.7340482941
 20
-1105.359382356
 10
1226.2495000104
 20
-1100.5405036044
 10
1225.4134830494
 20
-1095.7377009322
 10
1224.2274838188
 20
-1090.9595135473
 10
1222.6936109819
 20
-1086.2144368926
 10
1220.8145917086
 20
-1081.5109075411
 10
1218.5937668267
 20
-1076.8572881964
 10
1216.0350848817
 20
-1072.2618528238
 10
1213.1430951168
 20
-1067.7327719399
 10
1209.9229393842
 20
-1063.278098085
 10
1206.3803430033
 20
-1058.9057515067
 10
1202.5216045812
 20
-1054.6235060778
 10
1198.3535848139
 20
-1050.4389754742
 10
1193.8836942886
 20
-1046.3595996387
 10
1189.1198803075
 20
-1042.3926315527
 10
1184.0706127579
 20
-1038.5451243407
 10
1178.7448690534
 20
-1034.82391873
 10
1173.1521181718
 20
-1031.2356308885
 10
1167.3023038201
 20
-1027.786640661
 10
1161.2058267549
 20
-1024.4830802262
 10
1154.8735262897
 20
-1021.3308231941
 10
1148.3166610239
 20
-1018.3354741625
 10
1141.5468888244
 20
-1015.5023587529
 10
1134.5762460993
 20
-1012.8365141409
 10
1127.417126397
 20
-1010.3426801011
 10
1120.0822583709
 20
-1008.0252905793
 10
1112.5846831489
 20
-1005.8884658096
 10
1104.9377311459
 20
-1003.9360049883
 10
1097.1549983637
 20
-1002.1713795197
 10
1089.2503222171
 20
-1000.5977268433
 10
1081.2377569318
 20
-999.2178448562
 10
1073.1315485565
 20
-998.0341869383
 10
1064.9461096339
 20
-997.04885759
 10
1056.6959935756
 20
-996.2636086911
 10
1048.395868787
 20
-995.6798363855
 10
1040.0604925869
 20
-995.2985785989
 10
1031.7046849702
 20
-995.1205131938
 10
1023.3433022579
 20
-995.145956764
 10
1014.9912106831
 20
-995.3748640717
 10
1006.6632599601
 20
-995.8068281282
 10
998.3742568813
 20
-996.4410809171
 10
990.1389389915
 20
-997.27649476
 10
981.9719483856
 20
-998.3115843217
 10
973.8878056748
 20
-999.5445092507
 10
965.9008841698
 20
-1000.9730774515
 10
958.0253843256
 20
-1002.5947489818
 10
950.2753084935
 20
-1004.406640569
 10
942.6644360254
 20
-1006.4055307359
 10
935.206298775
 20
-1008.5878655288
 10
927.9141570381
 20
-1010.9497648359
 10
920.8009759765
 20
-1013.4870292866
 10
913.8794025666
 20
-1016.1951477172
 10
907.1617431134
 20
-1019.069305192
 10
900.6599413701
 20
-1022.1043915639
 10
894.3855573032
 20
-1025.2950105601
 10
888.3497465383
 20
-1028.6354893764
  0
LWPOLYLINE
  5
D0
330
1F
100
AcDbEntity
  8
0
  6
Continuous
 62
     7
370
    25
100
AcDbPolyline
 90
      160
 70
   128
 43
0.0
 10
1062.5101467446
 20
-377.1782877178
 10
1067.0788468946
 20
-379.8165762559
 10
1071.8888278043
 20
-382.5941519093
 10
1076.9325792594
 20
-385.5066778235
 10
1082.2022260407
 20
-388.5496064349
 10
1087.6895402203
 20
-391.7181865716
 10
1093.3859540085
 20
-395.0074708721
 10
1099.2825731314
 20
-398.4123235092
 10
1105.3701907182
 20
-401.9274282098
 10
1111.6393016767
 20
-405.5472965551
 10
1118.0801175342
 20
-409.2662765505
 10
1124.6825817215
 20
-413.0785614501
 10
1131.4363852744
 20
-416.9781988236
 10
1138.3309829304
 20
-420.9590998502
 10
1145.3556095937
 20
-425.0150488255
 10
1152.4992971437
 20
-429.1397128666
 10
1159.7508915603
 20
-433.3266518002
 10
1167.0990703395
 20
-437.5693282183
 10
1174.5323601725
 20
-441.8611176852
 10
1182.0391548597
 20
-446.1953190811
 10
1189.6077334321
 20
-450.5651650652
 10
1197.2262784529
 20
-454.9638326415
 10
1204.8828944683
 20
-459.3844538128
 10
1212.5656265814
 20
-463.820126304
 10
1220.2624791179
 20
-468.263924339
 10
1227.9614343563
 20
-472.7089094546
 10
1235.6504712919
 20
-477.1481413342
 10
1243.3175844062
 20
-481.5746886443
 10
1250.9508024123
 20
-485.9816398567
 10
1258.5382069463
 20
-490.3621140402
 10
1266.0679511769
 20
-494.7092716044
 10
1273.5282783021
 20
-499.0163249787
 10
1280.9075399068
 20
-503.2765492106
 10
1288.19421415
 20
-507.4832924656
 10
1295.3769237547
 20
-511.6299864136
 10
1302.4444537727
 20
-515.7101564842
 10
1309.3857690946
 20
-519.7174319762
 10
1316.1900316808
 20
-523.6455560046
 10
1322.8466174827
 20
-527.4883952699
 10
1329.345133032
 20
-531.2399496349
 10
1335.6754316679
 20
-534.8943614928
 10
1341.8276293806
 20
-538.4459249133
 10
1347.7921202437
 20
-541.8890945516
 10
1353.5595914128
 20
-545.2184943071
 10
1359.1210376662
 20
-548.4289257174
 10
1364.4677754658
 20
-551.5153760748
 10
1369.5914565152
 20
-554.4730262535
 10
1374.4840807947
 20
-557.2972582339
 10
1379.1380090522
 20
-559.9836623129
 10
1383.5459747313
 20
-562.5280439896
 10
1387.7010953168
 20
-564.9264305139
 10
1391.5968830811
 20
-567.17507709
 10
1395.2272552142
 20
-569.2704727231
 10
1398.5865433208
 20
-571.2093457019
 10
1401.6695022713
 20
-572.9886687062
 10
1404.4713183914
 20
-574.6056635344
 10
1406.9876169777
 20
-576.0578054411
 10
1409.2144691288
 20
-577.3428270789
 10
1411.1483978792
 20
-578.4587220393
 10
1412.7863836289
 20
-579.4037479846
 10
1414.1258688576
 20
-580.176429369
 10
1415.164762118
 20
-580.7755597423
 10
1415.9014413017
 20
-581.2002036335
 10
1416.3347561715
 20
-581.4496980116
 10
1416.4640301578
 20
-581.5236533208
 10
1416.2890614145
 20
-581.4219540885
 10
1415.8101231346
 20
-581.1447591061
 10
1415.0279631234
 20
-580.6925011806
 10
1413.9438026308
 20
-580.0658864591
 10
1412.5593344447
 20
-579.2658933261
 10
1410.8767202479
 20
-578.293770876
 10
1408.8985872428
 20
-577.1510369624
 10
1406.6280240492
 20
-575.8394758289
 10
1404.0685758819
 20
-574.3611353223
 10
1401.2242390155
 20
-572.7183236959
 10
1398.0994545443
 20
-570.9136060051
 10
1394.6991014485
 20
-568.9498001023
 10
1391.0284889755
 20
-566.8299722372
 10
1387.0933483513
 20
-564.5574322696
 10
1382.8998238306
 20
-562.1357285006
 10
1378.4544631042
 20
-559.5686421334
 10
1373.7642070752
 20
-556.8601813685
 10
1368.8363790216
 20
-554.014575146
 10
1363.678673162
 20
-551.0362665421
 10
1358.2991426418
 20
-547.9299058321
 10
1352.7061869593
 20
-544.7003432297
 10
1346.9085388509
 20
-541.3526213133
 10
1340.9152506558
 20
-537.8919671535
 10
1334.7356801823
 20
-534.3237841508
 10
1328.3794760959
 20
-530.6536435994
 10
1321.8565628549
 20
-526.8872759882
 10
1315.177125214
 20
-523.030562053
 10
1308.3515923221
 20
-519.0895235949
 10
1301.3906214386
 20
-515.0703140776
 10
1294.3050812932
 20
-510.9792090196
 10
1287.1060351158
 20
-506.8225961959
 10
1279.8047233624
 20
-502.6069656639
 10
1272.4125461645
 20
-498.3388996303
 10
1264.9410455294
 20
-494.0250621735
 10
1257.4018873184
 20
-489.6721888387
 10
1249.8068430321
 20
-485.2870761209
 10
1242.1677714305
 20
-480.876570853
 10
1234.4966000172
 20
-476.4475595155
 10
1226.8053064157
 20
-472.0069574837
 10
1219.1058996678
 20
-467.5616982306
 10
1211.4104014834
 20
-463.1187225009
 10
1203.7308274693
 20
-458.6849674738
 10
1196.0791683686
 20
-454.2673559314
 10
1188.4673713389
 20
-449.8727854497
 10
1180.9073212974
 20
-445.5081176289
 10
1173.4108223651
 20
-441.1801673797
 10
1165.989579435
 20
-436.8956922826
 10
1158.6551798971
 20
-432.6613820369
 10
1151.4190755456
 20
-428.4838480153
 10
1144.2925646984
 20
-424.3696129414
 10
1137.2867745562
 20
-420.3251007049
 10
1130.4126438288
 20
-416.3566263314
 10
1123.6809056553
 20
-412.4703861227
 10
1117.1020708457
 20
-408.6724479814
 10
1110.6864114696
 20
-404.9687419372
 10
1104.4439448175
 20
-401.3650508874
 10
1098.3844177601
 20
-397.8670015678
 10
1092.5172915296
 20
-394.4800557671
 10
1086.8517269471
 20
-391.2095017992
 10
1081.3965701193
 20
-388.0604462459
 10
1076.1603386258
 20
-385.0378059835
 10
1071.1512082206
 20
-382.146300506
 10
1066.3770000662
 20
-379.3904445561
 10
1061.8451685219
 20
-376.7745410756
 10
1057.5627895047
 20
-374.3026744872
 10
1053.5365494411
 20
-371.9787043173
 10
1049.772734827
 20
-369.8062591694
 10
1046.2772224122
 20
-367.7887310586
 10
1043.0554700242
 20
-365.9292701157
 10
1040.1125080471
 20
-364.2307796682
 10
1037.4529315666
 20
-362.6959117073
 10
1035.0808931957
 20
-361.3270627471
 10
1033.0000965907
 20
-360.1263700827
 10
1031.2137906685
 20
-359.0957084533
 10
1029.7247645338
 20
-358.2366871146
 10
1028.535343124
 20
-357.5506473264
 10
1027.6473835797
 20
-357.0386602585
 10
1027.062272344
 20
-356.7015253179
 10
1026.7809229989
 20
-356.5397689008
 10
1026.8037748379
 20
-356.5536435706
 10
1027.1307921806
 20
-356.7431276637
 10
1027.7614644281
 20
-357.1079253231
 10
1028.6948068608
 20
-357.6474669606
 10
1029.9293621751
 20
-358.360910146
 10
1031.4632027595
 20
-359.2471409225
 10
1033.2939337039
 20
-360.3047755459
 10
1035.4186965394
 20
-361.5321626452
 10
1037.834173701
 20
-362.9273858013
 10
1040.5365937078
 20
-364.4882665387
 10
1043.5217370518
 20
-366.2123677276
 10
1046.784942786
 20
-368.0969973885
 10
1050.3211158021
 20
-370.139212896
 10
1054.1247347856
 20
-372.3358255729
 10
1058.189860837
 20
-374.6834056694
 10
1062.5101467446
 20
-377.1782877178
  0
LWPOLYLINE
  5
D1
330
1F
100
AcDbEntity
  8
0
  6
Continuous
 62
     7
370
    25
100
AcDbPolyline
 90
      150
 70
   128
 43
0.0
 10
1081.3898978022
 20
-388.0773360106
 10
1077.334729998
 20
-385.7355530557
 10
1073.5360768876
 20
-383.5418542761
 10
1070.0006923375
 20
-381.5001399883
 10
1066.7348621326
 20
-379.6140402856
 10
1063.7443927996
 20
-377.8869085847
 10
1061.0346012841
 20
-376.3218156625
 10
1058.6103054963
 20
-374.9215441972
 10
1056.4758157458
 20
-373.6885838204
 10
1054.6349270774
 20
-372.6251266905
 10
1053.0909125239
 20
-371.7330635957
 10
1051.846517287
 20
-371.0139805915
 10
1050.903953856
 20
-370.4691561812
 10
1050.2648980741
 20
-370.0995590428
 10
1049.9304861594
 20
-369.9058463065
 10
1049.9013126839
 20
-369.8883623864
 10
1050.177429517
 20
-370.0471383684
 10
1050.7583457331
 20
-370.3818919545
 10
1051.6430284844
 20
-370.8920279652
 10
1052.8299048372
 20
-371.576639397
 10
1054.3168645686
 20
-372.434509036
 10
1056.1012639186
 20
-373.4641116213
 10
1058.1799302902
 20
-374.6636165569
 10
1060.5491678904
 20
-376.0308911669
 10
1063.2047643012
 20
-377.5635044869
 10
1066.1419979692
 20
-379.2587315865
 10
1069.3556466001
 20
-381.1135584135
 10
1072.8399964439
 20
-383.1246871537
 10
1076.5888524536
 20
-385.2885420936
 10
1080.5955493002
 20
-387.601275978
 10
1084.8529632229
 20
-390.0587768504
 10
1089.353524695
 20
-392.6566753641
 10
1094.0892318826
 20
-395.3903525502
 10
1099.051664871
 20
-398.2549480305
 10
1104.2320006355
 20
-401.2453686587
 10
1109.6210287281
 20
-404.3562975761
 10
1115.2091676536
 20
-407.5822036647
 10
1120.9864819049
 20
-410.917351381
 10
1126.9426996281
 20
-414.3558109543
 10
1133.0672308854
 20
-417.8914689288
 10
1139.3491864837
 20
-421.5180390336
 10
1145.7773973353
 20
-425.2290733596
 10
1152.3404343158
 20
-429.017973823
 10
1159.026628585
 20
-432.8780038971
 10
1165.8240923335
 20
-436.8023005894
 10
1172.7207399187
 20
-440.7838866435
 10
1179.7043093531
 20
-444.8156829447
 10
1186.7623841049
 20
-448.8905211063
 10
1193.8824151748
 20
-453.0011562147
 10
1201.0517434074
 20
-457.1402797108
 10
1208.2576219988
 20
-461.3005323841
 10
1215.4872391597
 20
-465.474517457
 10
1222.7277408947
 20
-469.6548137365
 10
1229.966253856
 20
-473.8339888083
 10
1237.1899082316
 20
-478.0046122516
 10
1244.3858606277
 20
-482.1592688502
 10
1251.5413169035
 20
-486.2905717763
 10
1258.6435549189
 20
-490.391175724
 10
1265.6799471539
 20
-494.4537899691
 10
1272.6379831598
 20
-498.4711913318
 10
1279.5052918026
 20
-502.436237019
 10
1286.2696632581
 20
-506.3418773242
 10
1292.9190707207
 20
-510.1811681616
 10
1299.4416917867
 20
-513.947283412
 10
1305.8259294736
 20
-517.63352706
 10
1312.06043284
 20
-521.2333450989
 10
1318.1341171664
 20
-524.7403371837
 10
1324.0361836637
 20
-528.1482680103
 10
1329.756138673
 20
-531.4510784021
 10
1335.2838123231
 20
-534.6428960828
 10
1340.609376612
 20
-537.718046117
 10
1345.7233628806
 20
-540.6710610002
 10
1350.6166786481
 20
-543.4966903797
 10
1355.2806237775
 20
-546.1899103896
 10
1359.7069059446
 20
-548.7459325829
 10
1363.8876553813
 20
-551.1602124455
 10
1367.8154388676
 20
-553.4284574758
 10
1371.4832729479
 20
-555.5466348171
 10
1374.8846363469
 20
-557.5109784273
 10
1378.0134815647
 20
-559.3179957751
 10
1380.8642456287
 20
-560.9644740497
 10
1383.4318599843
 20
-562.4474858726
 10
1385.7117595071
 20
-563.7643945032
 10
1387.6998906187
 20
-564.9128585258
 10
1389.3927184947
 20
-565.8908360133
 10
1390.7872333489
 20
-566.6965881575
 10
1391.8809557847
 20
-567.3286823604
 10
1392.6719412036
 20
-567.7859947816
 10
1393.1587832624
 20
-568.0677123364
 10
1393.3406163736
 20
-568.1733341411
 10
1393.2171172446
 20
-568.1026724042
 10
1392.7885054524
 20
-567.8558527595
 10
1392.055543053
 20
-567.4333140434
 10
1391.0195332269
 20
-566.8358075142
 10
1389.6823179618
 20
-566.0643955169
 10
1388.0462747775
 20
-565.1204495938
 10
1386.1143124992
 20
-564.0056480463
 10
1383.8898660853
 20
-562.7219729509
 10
1381.3768905204
 20
-561.2717066349
 10
1378.5798537832
 20
-559.6574276191
 10
1375.503728903
 20
-557.8820060326
 10
1372.1539851177
 20
-555.9485985102
 10
1368.5365781494
 20
-553.8606425799
 10
1364.6579396157
 20
-551.6218505512
 10
1360.5249655943
 20
-549.2362029145
 10
1356.1450043623
 20
-546.7079412644
 10
1351.5258433309
 20
-544.0415607578
 10
1346.6756951998
 20
-541.2418021218
 10
1341.6031833554
 20
-538.3136432253
 10
1336.3173265387
 20
-535.2622902278
 10
1330.8275228102
 20
-532.0931683236
 10
1325.1435328406
 20
-528.8119120959
 10
1319.2754625565
 20
-525.4243554984
 10
1313.233745173
 20
-521.9365214832
 10
1307.0291226428
 20
-518.3546112919
 10
1300.6726265586
 20
-514.68499343
 10
1294.1755585383
 20
-510.9341923442
 10
1287.5494701319
 20
-507.108876822
 10
1280.8061422826
 20
-503.2158481348
 10
1273.9575643814
 20
-499.2620279454
 10
1267.0159129497
 20
-495.254446002
 10
1259.9935299906
 20
-491.2002276389
 10
1252.9029010447
 20
-487.1065811085
 10
1245.7566329914
 20
-482.9807847649
 10
1238.5674316346
 20
-478.8301741234
 10
1231.348079112
 20
-474.6621288183
 10
1224.1114111688
 20
-470.4840594821
 10
1216.8702943366
 20
-466.3033945694
 10
1209.6376030568
 20
-462.1275671501
 10
1202.4261967907
 20
-457.9640016929
 10
1195.2488971553
 20
-453.8201008651
 10
1188.1184651276
 20
-449.7032323713
 10
1181.0475783554
 20
-445.6207158534
 10
1174.0488086174
 20
-441.5798098767
 10
1167.1345994708
 20
-437.5876990247
 10
1160.3172441271
 20
-433.6514811248
 10
1153.6088635954
 20
-429.7781546287
 10
1147.0213851314
 20
-425.9746061696
 10
1140.5665210314
 20
-422.2475983178
 10
1134.2557478082
 20
-418.6037575573
 10
1128.1002857864
 20
-415.0495625041
 10
1122.1110791528
 20
-411.5913323871
 10
1116.2987764982
 20
-408.2352158134
 10
1110.6737118846
 20
-404.9871798357
 10
1105.2458864716
 20
-401.8529993435
 10
1100.0249507347
 20
-398.8382467953
 10
1095.0201873072
 20
-395.9482823111
 10
1090.2404944758
 20
-393.1882441424
 10
1085.6943703599
 20
-390.5630395362
 10
1081.3898978022
 20
-388.0773360106
  0
LWPOLYLINE
  5
D2
330
1F
100
AcDbEntity
  8
0
  6
Continuous
 62
     1
370
    25
100
AcDbPolyline
 90
       21
 70
   128
 43
0.0
 10
1187.6680470146
 20
-787.6336492921
 10
1193.8293022125
 20
-791.3338726986
 10
1199.7325230993
 20
-795.1717251353
 10
1205.3684924963
 20
-799.141214251
 10
1210.7284105063
 20
-803.2361421599
 10
1215.8039082536
 20
-807.450115118
 10
1220.587060951
 20
-811.7765535068
 10
1225.0704002732
 20
-816.2087021063
 10
1229.2469260183
 20
-820.7396406426
 10
1233.1101170369
 20
-825.3622945931
 10
1236.653941415
 20
-830.0694462324
 10
1239.8728658914
 20
-834.8537459019
 10
1242.7618644976
 20
-839.7077234856
 10
1245.3164264053
 20
-844.6238000737
 10
1247.5325629694
 20
-849.5942997963
 10
1249.4068139555
 20
-854.611461808
 10
1250.9362529434
 20
-859.667452406
 10
1252.1184918956
 20
-864.754377261
 10
1252.9516848863
 20
-869.8642937438
 10
1253.4345309835
 20
-874.9892233264
 10
1253.5690212476
 20
-879.4795618721
  0
LWPOLYLINE
  5
D3
330
1F
100
AcDbEntity
  8
0
  6
Continuous
 62
     1
370
    25
100
AcDbPolyline
 90
       61
 70
   128
 43
0.0
 10
803.5690212476
 20
-879.4795618721
 10
803.6376420779
 20
-876.2718641249
 10
804.0327622532
 20
-871.1444309337
 10
804.7784691429
 20
-866.03001206
 10
805.8735984141
 20
-860.9365930618
 10
807.3164401526
 20
-855.8721267082
 10
809.1047415322
 20
-850.8445205622
 10
811.2357103326
 20
-845.8616246341
 10
813.7060192989
 20
-840.9312191243
 10
816.511811337
 20
-836.0610022757
 10
819.6487055357
 20
-831.2585783538
 10
823.1118040071
 20
-826.5314457735
 10
826.8956995339
 20
-821.8869853912
 10
830.9944840125
 20
-817.3324489804
 10
835.4017576775
 20
-812.8749479091
 10
840.1106390943
 20
-808.521442036
 10
845.1137759034
 20
-804.2787288438
 10
850.4033563006
 20
-800.1534328256
 10
855.9711212342
 20
-796.1519951412
 10
861.8083773
 20
-792.2806635608
 10
867.9060103157
 20
-788.5454827089
 10
874.254499551
 20
-784.9522846271
 10
880.8439325938
 20
-781.5066796676
 10
887.6640208265
 20
-778.2140477337
 10
894.7041154909
 20
-775.0795298791
 10
901.9532243149
 20
-772.1080202814
 10
909.4000286757
 20
-769.3041586002
 10
917.0329012721
 20
-766.6723227326
 10
924.8399242797
 20
-764.2166219778
 10
932.8089079589
 20
-761.9408906212
 10
940.9274096876
 20
-759.8486819471
 10
949.182753389
 20
-757.9432626909
 10
957.5620493239
 20
-756.2276079387
 10
966.0522142165
 20
-754.7043964816
 10
974.6399916821
 20
-753.3760066336
 10
983.3119729256
 20
-752.2445125177
 10
992.0546176777
 20
-751.3116808277
 10
1000.8542753365
 20
-750.5789680695
 10
1009.697206281
 20
-750.047518287
 10
1018.5696033244
 20
-749.7181612762
 10
1027.4576132719
 20
-749.5914112887
 10
1036.347358551
 20
-749.6674662297
 10
1045.2249588798
 20
-749.9462073485
 10
1054.0765529391
 20
-750.4271994238
 10
1062.8883200156
 20
-751.1096914437
 10
1071.6465015811
 20
-751.9926177778
 10
1080.3374227746
 20
-753.0745998414
 10
1088.9475137544
 20
-754.3539482482
 10
1097.4633308855
 20
-755.8286654473
 10
1105.8715777303
 20
-757.4964488429
 10
1114.1591258096
 20
-759.3546943892
 10
1122.3130351008
 20
-761.4005006565
 10
1130.3205742424
 20
-763.630673361
 10
1138.1692404126
 20
-766.0417303528
 10
1145.846778851
 20
-768.6299070526
 10
1153.3412019925
 20
-771.3911623298
 10
1160.6408081852
 20
-774.3211848121
 10
1167.7341999604
 20
-777.415399617
 10
1174.610301829
 20
-780.6689754956
 10
1181.2583775741
 20
-784.0768323753
 10
1187.6680470146
 20
-787.6336492921
  0
LWPOLYLINE
  5
D4
330
1F
100
AcDbEntity
  8
0
  6
Continuous
 62
     1
370
    25
100
AcDbPolyline
 90
       26
 70
   128
 43
0.0
 10
1187.6680470146
 20
-787.6336492921
 10
1193.8656816361
 20
-791.2114511208
 10
1199.8779839914
 20
-794.6822299707
 10
1205.6955665841
 20
-798.0405666327
 10
1211.3093459495
 20
-801.2812174626
 10
1216.7105568375
 20
-804.399122569
 10
1221.8907658986
 20
-807.3894137132
 10
1226.8418848512
 20
-810.2474219104
 10
1231.5561831108
 20
-812.9686847201
 10
1236.0262998602
 20
-815.5489532135
 10
1240.2452555429
 20
-817.9841986076
 10
1244.2064627603
 20
-820.2706185559
 10
1247.9037365575
 20
-822.404643085
 10
1251.3313040805
 20
-824.3829401689
 10
1254.4838135895
 20
-826.2024209316
 10
1257.356342815
 20
-827.8602444698
 10
1259.9444066436
 20
-829.3538222888
 10
1262.243964121
 20
-830.6808223443
 10
1264.251424761
 20
-831.8391726831
 10
1265.9636541522
 20
-832.8270646788
 10
1267.3779788517
 20
-833.6429558551
 10
1268.4921905594
 20
-834.285572295
 10
1269.3045495658
 20
-834.753910629
 10
1269.8137874689
 20
-835.0472396026
 10
1270.0191091541
 20
-835.1651012172
 10
1270.0237627231
 20
-835.1676694793
  0
LWPOLYLINE
  5
D5
330
1F
100
AcDbEntity
  8
0
  6
Continuous
 62
     1
370
    25
100
AcDbPolyline
 90
       57
 70
   128
 43
0.0
 10
880.312331306
 20
-610.1676689841
 10
880.3284113521
 20
-610.1771749197
 10
880.5794166439
 20
-610.3227736874
 10
881.134248983
 20
-610.6437856734
 10
881.9920420645
 20
-611.1397096556
 10
883.1514565464
 20
-611.8097713075
 10
884.6106821405
 20
-612.6529244073
 10
886.3674404394
 20
-613.6678524717
 10
888.4189884734
 20
-614.8529708109
 10
890.7621229939
 20
-616.2064290032
 10
893.3931854745
 20
-617.7261137845
 10
896.3080678234
 20
-619.4096523473
 10
899.5022187978
 20
-621.254416046
 10
902.9706511103
 20
-623.2575245011
 10
906.7079492153
 20
-625.4158500965
 10
910.7082777657
 20
-627.726022863
 10
914.9653907232
 20
-630.18443574
 10
919.4726411112
 20
-632.7872502077
 10
924.2229913935
 20
-635.5304022803
 10
929.2090244618
 20
-638.4096088514
 10
934.4229552175
 20
-641.4203743817
 10
939.8566427266
 20
-644.5579979184
 10
945.501602931
 20
-647.8175804346
 10
951.3490218956
 20
-651.1940324792
 10
957.3897695696
 20
-654.6820821231
 10
963.6144140428
 20
-658.276283191
 10
970.0132362716
 20
-661.9710237645
 10
976.5762452548
 20
-665.7605349447
 10
983.2931936329
 20
-669.6388998598
 10
990.1535936884
 20
-673.6000629034
 10
997.1467337208
 20
-677.6378391896
 10
1004.2616947724
 20
-681.7459242101
 10
1011.4873676758
 20
-685.9179036777
 10
1018.8124704007
 20
-690.1472635418
 10
1026.2255656686
 20
-694.4274001589
 10
1033.7150788114
 20
-698.7516306039
 10
1041.2693158432
 20
-703.1132031042
 10
1048.8764817198
 20
-707.5053075821
 10
1056.5246987545
 20
-711.9210862878
 10
1064.2020251645
 20
-716.3536445071
 10
1071.8964737158
 20
-720.7960613265
 10
1079.5960304405
 20
-725.2414004395
 10
1087.2886733947
 20
-729.6827209767
 10
1094.9623914296
 20
-734.1130883433
 10
1102.6052029454
 20
-738.5255850467
 10
1110.2051745993
 20
-742.9133214969
 10
1117.7504399375
 20
-747.2694467645
 10
1125.2292179241
 20
-751.5871592768
 10
1132.6298313349
 20
-755.8597174384
 10
1139.9407249906
 20
-760.0804501568
 10
1147.1504837986
 20
-764.242767259
 10
1154.2478505764
 20
-768.3401697809
 10
1161.2217436283
 20
-772.3662601148
 10
1168.0612740481
 20
-776.3147519986
 10
1174.755762721
 20
-780.179480331
 10
1181.2947569976
 20
-783.9544107975
 10
1187.6680470146
 20
-787.6336492921
  0
LINE
  5
D6
330
1F
100
AcDbEntity
  8
0
  6
Continuous
 62
     7
370
    25
100
AcDbLine
 10
-72.2165609357
 20
120.1802485936
 30
0.0
 11
-72.2165609357
 21
-161.6216998725
 31
0.0
  0
LINE
  5
D7
330
1F
100
AcDbEntity
  8
0
  6
Continuous
 62
     7
370
    25
100
AcDbLine
 10
377.7834390643
 20
-161.6216998725
 30
0.0
 11
377.7834390643
 21
120.1802485936
 31
0.0
  0
ARC
  5
D8
330
1F
100
AcDbEntity
  8
0
  6
Continuous
 62
     7
370
    25
100
AcDbCircle
 10
377.7834390643
 20
120.1802485936
 30
0.0
 40
449.9999999999999
100
AcDbArc
 50
135.0
 51
180.0
  0
LINE
  5
D9
330
1F
100
AcDbEntity
  8
0
  6
Continuous
 62
     7
370
    25
100
AcDbLine
 10
266.6844132973
 20
645.4773258945
 30
0.0
 11
59.5853875303
 21
438.3783001275
 31
0.0
  0
LINE
  5
DA
330
1F
100
AcDbEntity
  8
0
  6
Continuous
 62
     7
370
    25
100
AcDbLine
 10
377.7834390643
 20
120.1802485936
 30
0.0
 11
584.8824648312
 21
327.2792743605
 31
0.0
  0
LINE
  5
DB
330
1F
100
AcDbEntity
  8
0
  6
Continuous
 62
     7
370
    25
100
AcDbLine
 10
152.7834390643
 20
-161.6216998725
 30
0.0
 11
377.7834390643
 21
-161.6216998725
 31
0.0
  0
LINE
  5
DC
330
1F
100
AcDbEntity
  8
0
  6
Continuous
 62
     7
370
    25
100
AcDbLine
 10
-72.2165609357
 20
-161.6216998725
 30
0.0
 11
152.7834390643
 21
-161.6216998725
 31
0.0
  0
LINE
  5
DD
330
1F
100
AcDbEntity
  8
0
  6
Continuous
 62
     7
370
    25
100
AcDbLine
 10
425.7834390643
 20
486.3783001275
 30
0.0
 11
584.8824648312
 21
327.2792743605
 31
0.0
  0
LINE
  5
DE
330
1F
100
AcDbEntity
  8
0
  6
Continuous
 62
     7
370
    25
100
AcDbLine
 10
266.6844132973
 20
645.4773258945
 30
0.0
 11
425.7834390643
 21
486.3783001275
 31
0.0
  0
LINE
  5
DF
330
1F
100
AcDbEntity
  8
0
  6
Continuous
 62
     1
370
    25
100
AcDbLine
 10
-72.2165609357
 20
120.1802485936
 30
0.0
 11
377.7834390643
 21
120.1802485936
 31
0.0
  0
LINE
  5
E0
330
1F
100
AcDbEntity
  8
0
  6
Continuous
 62
     1
370
    25
100
AcDbLine
 10
59.5853875303
 20
438.3783001275
 30
0.0
 11
377.7834390643
 21
120.1802485936
 31
0.0
  0
ENDSEC
  0
SECTION
  2
OBJECTS
  0
DICTIONARY
  5
C
330
0
100
AcDbDictionary
281
     1
  3
ACAD_GROUP
350
D
  3
ACAD_LAYOUT
350
1A
  3
ACAD_MLINESTYLE
350
17
  3
ACAD_PLOTSETTINGS
350
19
  3
ACAD_PLOTSTYLENAME
350
E
  3
ACAD_SCALELIST
350
47
  3
DWGPROPS
350
E1
  0
DICTIONARY
  5
D
102
{ACAD_REACTORS
330
C
102
}
330
C
100
AcDbDictionary
281
     1
  0
DICTIONARY
  5
1A
102
{ACAD_REACTORS
330
C
102
}
330
C
100
AcDbDictionary
281
     1
  3
Layout1
350
1E
  3
Layout2
350
26
  3
Model
350
22
  0
DICTIONARY
  5
17
102
{ACAD_REACTORS
330
C
102
}
330
C
100
AcDbDictionary
281
     1
  3
Standard
350
18
  0
DICTIONARY
  5
19
102
{ACAD_REACTORS
330
C
102
}
330
C
100
AcDbDictionary
281
     1
  0
ACDBDICTIONARYWDFLT
  5
E
102
{ACAD_REACTORS
330
C
102
}
330
C
100
AcDbDictionary
281
     1
  3
Normal
350
F
100
AcDbDictionaryWithDefault
340
F
  0
DICTIONARY
  5
47
102
{ACAD_REACTORS
330
C
102
}
330
C
100
AcDbDictionary
281
     1
  3
A0
350
48
  3
A1
350
49
  3
A2
350
4A
  3
A3
350
4B
  3
A4
350
4C
  3
A5
350
4D
  3
A6
350
4E
  3
A7
350
4F
  3
A8
350
50
  3
A9
350
51
  3
B0
350
52
  3
B1
350
53
  3
B2
350
54
  3
B3
350
55
  3
B4
350
56
  3
B5
350
57
  3
B6
350
58
  3
B7
350
59
  3
B8
350
5A
  3
B9
350
5B
  3
C0
350
5C
  3
C1
350
5D
  3
C2
350
5E
  3
C3
350
5F
  3
C4
350
60
  3
C5
350
61
  3
C6
350
62
  3
C7
350
63
  3
C8
350
64
  3
C9
350
65
  3
D0
350
66
  3
D1
350
67
  3
D2
350
68
  0
XRECORD
  5
E1
102
{ACAD_REACTORS
330
C
102
}
330
C
100
AcDbXrecord
280
     1
  1
DWGPROPS COOKIE
  2

  3

  4

  6

  7

  8
b.kav
  9

300
=
301
=
302
=
303
=
304
=
305
=
306
=
307
=
308
=
309
=
 40
0.0
 41
2459947.277172384
 42
2459947.277172697
  1

 90
        0
  0
LAYOUT
  5
1E
102
{ACAD_REACTORS
330
1A
102
}
330
1A
100
AcDbPlotSettings
  1

  2
none_device
  4

  6

 40
0.0
 41
0.0
 42
0.0
 43
0.0
 44
0.0
 45
0.0
 46
0.0
 47
0.0
 48
0.0
 49
0.0
140
0.0
141
0.0
142
1.0
143
1.0
 70
   688
 72
     1
 73
     0
 74
     5
  7

 75
    16
147
1.0
148
0.0
149
0.0
100
AcDbLayout
  1
Layout1
 70
     1
 71
     1
 10
0.0
 20
0.0
 11
420.0
 21
297.0
 12
0.0
 22
0.0
 32
0.0
 14
1.0000000000E+20
 24
1.0000000000E+20
 34
1.0000000000E+20
 15
-1.0000000000E+20
 25
-1.0000000000E+20
 35
-1.0000000000E+20
146
0.0
 13
0.0
 23
0.0
 33
0.0
 16
1.0
 26
0.0
 36
0.0
 17
0.0
 27
1.0
 37
0.0
 76
     0
330
1B
  0
LAYOUT
  5
26
102
{ACAD_REACTORS
330
1A
102
}
330
1A
100
AcDbPlotSettings
  1

  2
none_device
  4

  6

 40
0.0
 41
0.0
 42
0.0
 43
0.0
 44
0.0
 45
0.0
 46
0.0
 47
0.0
 48
0.0
 49
0.0
140
0.0
141
0.0
142
1.0
143
1.0
 70
   688
 72
     1
 73
     0
 74
     5
  7

 75
    16
147
1.0
148
0.0
149
0.0
100
AcDbLayout
  1
Layout2
 70
     1
 71
     2
 10
0.0
 20
0.0
 11
0.0
 21
0.0
 12
0.0
 22
0.0
 32
0.0
 14
0.0
 24
0.0
 34
0.0
 15
0.0
 25
0.0
 35
0.0
146
0.0
 13
0.0
 23
0.0
 33
0.0
 16
1.0
 26
0.0
 36
0.0
 17
0.0
 27
1.0
 37
0.0
 76
     0
330
23
  0
LAYOUT
  5
22
102
{ACAD_REACTORS
330
1A
102
}
330
1A
100
AcDbPlotSettings
  1

  2
none_device
  4
Letter_(8.50_x_11.00_Inches)
  6

 40
6.35
 41
6.35
 42
6.35000508
 43
6.35000508
 44
215.9
 45
279.4
 46
0.0
 47
0.0
 48
0.0
 49
0.0
140
0.0
141
0.0
142
1.0
143
1.0
 70
  1712
 72
     1
 73
     0
 74
     0
  7

 75
     0
147
1.0
148
0.0
149
0.0
100
AcDbLayout
  1
Model
 70
     1
 71
     0
 10
0.0
 20
0.0
 11
279.4
 21
215.9
 12
0.0
 22
0.0
 32
0.0
 14
0.0
 24
0.0
 34
0.0
 15
279.4
 25
215.9
 35
0.0
146
0.0
 13
0.0
 23
0.0
 33
0.0
 16
1.0
 26
0.0
 36
0.0
 17
0.0
 27
1.0
 37
0.0
 76
     0
330
1F
331
29
  0
MLINESTYLE
  5
18
102
{ACAD_REACTORS
330
17
102
}
330
17
100
AcDbMlineStyle
  2
Standard
 70
     0
  3

 62
   256
 51
90.0
 52
90.0
 71
     2
 49
0.5
 62
   256
  6
BYLAYER
 49
-0.5
 62
   256
  6
BYLAYER
  0
ACDBPLACEHOLDER
  5
F
102
{ACAD_REACTORS
330
E
102
}
330
E
  0
SCALE
  5
48
102
{ACAD_REACTORS
330
47
102
}
330
47
100
AcDbScale
 70
     0
300
1:1
140
1.0
141
1.0
290
     1
  0
SCALE
  5
49
102
{ACAD_REACTORS
330
47
102
}
330
47
100
AcDbScale
 70
     0
300
1:2
140
1.0
141
2.0
290
     0
  0
SCALE
  5
4A
102
{ACAD_REACTORS
330
47
102
}
330
47
100
AcDbScale
 70
     0
300
1:4
140
1.0
141
4.0
290
     0
  0
SCALE
  5
4B
102
{ACAD_REACTORS
330
47
102
}
330
47
100
AcDbScale
 70
     0
300
1:5
140
1.0
141
5.0
290
     0
  0
SCALE
  5
4C
102
{ACAD_REACTORS
330
47
102
}
330
47
100
AcDbScale
 70
     0
300
1:8
140
1.0
141
8.0
290
     0
  0
SCALE
  5
4D
102
{ACAD_REACTORS
330
47
102
}
330
47
100
AcDbScale
 70
     0
300
1:10
140
1.0
141
10.0
290
     0
  0
SCALE
  5
4E
102
{ACAD_REACTORS
330
47
102
}
330
47
100
AcDbScale
 70
     0
300
1:16
140
1.0
141
16.0
290
     0
  0
SCALE
  5
4F
102
{ACAD_REACTORS
330
47
102
}
330
47
100
AcDbScale
 70
     0
300
1:20
140
1.0
141
20.0
290
     0
  0
SCALE
  5
50
102
{ACAD_REACTORS
330
47
102
}
330
47
100
AcDbScale
 70
     0
300
1:30
140
1.0
141
30.0
290
     0
  0
SCALE
  5
51
102
{ACAD_REACTORS
330
47
102
}
330
47
100
AcDbScale
 70
     0
300
1:40
140
1.0
141
40.0
290
     0
  0
SCALE
  5
52
102
{ACAD_REACTORS
330
47
102
}
330
47
100
AcDbScale
 70
     0
300
1:50
140
1.0
141
50.0
290
     0
  0
SCALE
  5
53
102
{ACAD_REACTORS
330
47
102
}
330
47
100
AcDbScale
 70
     0
300
1:100
140
1.0
141
100.0
290
     0
  0
SCALE
  5
54
102
{ACAD_REACTORS
330
47
102
}
330
47
100
AcDbScale
 70
     0
300
2:1
140
2.0
141
1.0
290
     0
  0
SCALE
  5
55
102
{ACAD_REACTORS
330
47
102
}
330
47
100
AcDbScale
 70
     0
300
4:1
140
4.0
141
1.0
290
     0
  0
SCALE
  5
56
102
{ACAD_REACTORS
330
47
102
}
330
47
100
AcDbScale
 70
     0
300
8:1
140
8.0
141
1.0
290
     0
  0
SCALE
  5
57
102
{ACAD_REACTORS
330
47
102
}
330
47
100
AcDbScale
 70
     0
300
10:1
140
10.0
141
1.0
290
     0
  0
SCALE
  5
58
102
{ACAD_REACTORS
330
47
102
}
330
47
100
AcDbScale
 70
     0
300
100:1
140
100.0
141
1.0
290
     0
  0
SCALE
  5
59
102
{ACAD_REACTORS
330
47
102
}
330
47
100
AcDbScale
 70
     0
300
1/128" = 1'-0"
140
0.0078125
141
12.0
290
     0
  0
SCALE
  5
5A
102
{ACAD_REACTORS
330
47
102
}
330
47
100
AcDbScale
 70
     0
300
1/64" = 1'-0"
140
0.015625
141
12.0
290
     0
  0
SCALE
  5
5B
102
{ACAD_REACTORS
330
47
102
}
330
47
100
AcDbScale
 70
     0
300
1/32" = 1'-0"
140
0.03125
141
12.0
290
     0
  0
SCALE
  5
5C
102
{ACAD_REACTORS
330
47
102
}
330
47
100
AcDbScale
 70
     0
300
1/16" = 1'-0"
140
0.0625
141
12.0
290
     0
  0
SCALE
  5
5D
102
{ACAD_REACTORS
330
47
102
}
330
47
100
AcDbScale
 70
     0
300
3/32" = 1'-0"
140
0.09375
141
12.0
290
     0
  0
SCALE
  5
5E
102
{ACAD_REACTORS
330
47
102
}
330
47
100
AcDbScale
 70
     0
300
1/8" = 1'-0"
140
0.125
141
12.0
290
     0
  0
SCALE
  5
5F
102
{ACAD_REACTORS
330
47
102
}
330
47
100
AcDbScale
 70
     0
300
3/16" = 1'-0"
140
0.1875
141
12.0
290
     0
  0
SCALE
  5
60
102
{ACAD_REACTORS
330
47
102
}
330
47
100
AcDbScale
 70
     0
300
1/4" = 1'-0"
140
0.25
141
12.0
290
     0
  0
SCALE
  5
61
102
{ACAD_REACTORS
330
47
102
}
330
47
100
AcDbScale
 70
     0
300
3/8" = 1'-0"
140
0.375
141
12.0
290
     0
  0
SCALE
  5
62
102
{ACAD_REACTORS
330
47
102
}
330
47
100
AcDbScale
 70
     0
300
1/2" = 1'-0"
140
0.5
141
12.0
290
     0
  0
SCALE
  5
63
102
{ACAD_REACTORS
330
47
102
}
330
47
100
AcDbScale
 70
     0
300
3/4" = 1'-0"
140
0.75
141
12.0
290
     0
  0
SCALE
  5
64
102
{ACAD_REACTORS
330
47
102
}
330
47
100
AcDbScale
 70
     0
300
1" = 1'-0"
140
1.0
141
12.0
290
     0
  0
SCALE
  5
65
102
{ACAD_REACTORS
330
47
102
}
330
47
100
AcDbScale
 70
     0
300
1-1/2" = 1'-0"
140
1.5
141
12.0
290
     0
  0
SCALE
  5
66
102
{ACAD_REACTORS
330
47
102
}
330
47
100
AcDbScale
 70
     0
300
3" = 1'-0"
140
3.0
141
12.0
290
     0
  0
SCALE
  5
67
102
{ACAD_REACTORS
330
47
102
}
330
47
100
AcDbScale
 70
     0
300
6" = 1'-0"
140
6.0
141
12.0
290
     0
  0
SCALE
  5
68
102
{ACAD_REACTORS
330
47
102
}
330
47
100
AcDbScale
 70
     0
300
1'-0" = 1'-0"
140
12.0
141
12.0
290
     0
  0
ENDSEC
  0
EOF
